Oops, an error
Loading. Please wait.

Cuidaré Tu Corazón Chords

4 views 1 this week
no commentswrite comment
1 2 3 4 5
3 more votes to show rating
add to favorites
launch autoscroll
font size
0
reset
transpose
0
reset
display chords
guitar tuner
×
Best way to learn
"Cuidaré Tu Corazón"
Autoscroll
slow
fast
+/-
esc
set tempo
stop
Bueno este es mi aporte espero les guste.


    A      G      F      C
e---5------3------1------3-----------------------------e
b---5------3------1------5-----------------------------B
G---6------4------2------5-----------------------------G
D---7------5------3------5-----------------------------D
A---7------5------3------3-----------------------------A
E---5------3------1------------------------------------E

kuando pasa de A a G hace este pekeño arreglo

         G
e---------3---------3---------------------------------e
b---------3---------3---------------------------------B
G---------4---------4---------------------------------G
D---------5---------5---------------------------------D
A---------5---------5---------------------------------A
E---------3----5----3---------------------------------E

En los tonos de F por lo regular hace 2 tiempos


A G F (2)

A       G           F
A veces me siento solo
               F
Cierro mis ojos
               A
Grito al cielo

A     G           F
Poco me hace sonreír
                F
Cuando lo siento
                     G
Cuando siento este dolor


PRECORO
G        F
Te quiero
        G         F
Aunque no se si debo (2)

CORO
C
Dime todo lo que sientes
G
Todo lo que arrepientes
      F
Y lo que
                  F
Que opines del amor

C
Si me das un chance
     G
Y si buscas romance
      F
Cuidare
                 F
Cuidare tu Corazón

A        G           F
Prometo no te fallare
                 F
Te doy mi palabra
              A
Ojala la tomes

A        G          F
Intentare de una vez
                 F
Ya no tengo miedo
                 G
Pero tal vez debo

PRE CORO

CORO

 G  A  F (4)
Cuidare tu corazón
Si me das un chance
Cuidare tu corazón
Dámelo

CORO

A      G        F
Cuidare tu corazón

...

Si esta mal alguna nota
porfavor diganme o korrijanla.

kosmo_58@
Suggest correction
Give kudos to tab author, rate the tab!
1 2 3 4 5
comments
print report bad tab
guest
You may want to rate the tab now too:
select rating
Wanna post a correction for this tab? Suggest correction