Oops, an error
Loading. Please wait.

Entre Noche Y Mañana Chords

10 views 1 this week
no commentswrite comment
1 2 3 4 5
3 more votes to show rating
add to favorites
launch autoscroll
font size
0
reset
transpose
0
reset
simplify chords
display chords
guitar tuner
×
Best way to learn
"Entre Noche Y Mañana"
Autoscroll
slow
fast
+/-
esc
set tempo
stop
hey.....
bueno aqui una muy buena rola del luke brodie
ojala les guste
si sus cuerdas no tienen buen sonido
no se escuchara bien..
asi estaba yo..


Intro

Verso (son iguales)

*Los números de veces no son exactos
Escuchen los rasgueos de la canción

Esta es la secuencia

   Dadd9
E---------------------------------------------
A-5555555555--5----5----5555555555--5----5----
D-7777777777-----7---7--7777777777-----7---7--
g-7777777777---7--------7777777777---7--------
b---------------------------------------------
e---------------------------------------------
   Am
E-5555555555-5555555555--
A-7777777777-7777777777--
D-7777777777-7777777777--
g------------------------
b------------------------
e------------------------

Dadd9                Am
Ya se que no regresaras
Dadd9       Am
Y no pido mas
Dadd9     Am
No cambiara
Dadd9                          Am
Lo que un sentimiento no alcanzara

Dadd9                 Am
Yo pondré pluma en papel
Dadd9       Am
Y seguiré fiel
Dadd9         Am
Siento en cárcel
Dadd9                        Am
No admitiré que esto no es real

Coro

Esta es la secuencia del coro

     Gm          Am       Dadd9        Am
E-3333333333-5555555555------------5555555555
A-5555555555-7777777777-5555555555-7777777777
D-5555555555-7777777777-7777777777-7777777777
g-----------------------7777777777-----------
b--------------------------------------------
e--------------------------------------------


Coro

Gm                Am
Entre noche y mañana
Dadd9            Am
Oirás mis palabras
Gm                  Am
Entre sueno y despierto
Dadd9            Am
Es cuando te quiero
Gm                   Am
Y yo seguiré queriéndote

Verso
Dadd9              Am
Cuando se va cada día
Dadd9           Am
También va mi alma
Dadd9       Am
Apague mi vela
Dadd9                       Am
Y no quiero oír ni una palabra

Coro

Gm                Am
Entre noche y mañana
Dadd9            Am
Oirás mis palabras
Gm                  Am
Entre sueno y despierto
Dadd9            Am
Es cuando te quiero
Gm                   Am
Y yo seguiré queriéndote

queriéndote, queriendo te!

      Dadd9        Am      Gm
E--------------5555555555--3----------
A---5555555555-7777777777--5----------
D---7777777777-7777777777--5----------
g---7777777777------------------------
b-------------------------------------
e-------------------------------------
Suggest correction
Give kudos to tab author, rate the tab!
1 2 3 4 5
comments
print report bad tab
guest
You may want to rate the tab now too:
select rating
Wanna post a correction for this tab? Suggest correction