Oops, an error
Loading. Please wait.

Contrabando Y Traición Bass

412 views 9 this week
no commentswrite comment
1 2 3 4 5
3 more votes to show rating
add to favorites
launch autoscroll
font size
0
reset
guitar tuner
×
Best way to learn
"Contrabando Y Traición"
Autoscroll
slow
fast
+/-
esc
set tempo
stop
Contrabando y traición

INTRO

    C
G I-------------------------------------------------|
D I----------------2-2-3-2----------------2-2-3-2---|
A I?3-3---1-1-3------------?3-3---1-1-3-------------|x8
E I-------------------------------------------------|

VERSO 1
     C                         G
G I------------------------------------------------------
D I------------------------------------------------------
A I--33-1-33-1-33-1-33-1-33-1----------------------------
E I----------------------------33-1-33-1-33-1-33-1-33----

     C               G
G I------------------------------------------------------------
D I------------------------------------------------------------
A I--33-1-33-1-33-1----0-2-3---0-2-3---0-2-3---0-2-3---0-2-3---
E I------------------3-------3-------3-------3-------3---------

G I---------------------------------------------
D I---------------------------------------------
A I----0-2-3---0-2-3---0-2-3---0-2-3---0-2-3----
E I--3-------3-------3-------3-------3----------
    C
G I-------------------------------------------------|
D I----------------2-2-3-2----------------2-2-3-2---|
A I?3-3---1-1-3------------?3-3---1-1-3-------------|x2
E I-------------------------------------------------|

variación del segundo verso al final
    C
G I-------------------------------------------------|
D I----------------2-2-3-2----------------0-1-2-----|
A I?3-3---1-1-3------------?3-3---1-1-3-------------|x8
E I-------------------------------------------------|

CORO
    F                        C              G             C
G I------------------------------------------------------------
D I-33-2-33-2-33-2-33-2-33-2-----------------------------------
A I--------------------------33-1-33-1-33-1-------------0-33-1-
E I-----------------------------------------33-1-33-1-33-------
              G
G I-------------------------------------------------------------
D I-------------------------------------------------------------
A I-33-1-33-1---0-2-3---0-2-3---0-2-3----0-2-3---0-2-3---0-2-3--
E I-----------3-------3-------3--------3-------3-------3--------

G|-----------------------------------
D|-----------------------------------
A|----0-2-3---0-2-3---0-2-3---0-2-3--
E|--3-------3-------3-------3--------
    C
G I-------------------------------------------------|
D I----------------2-2-3-2----------------2-2-3-2---|
A I?3-3---1-1-3------------?3-3---1-1-3-------------|x2
E I-------------------------------------------------|


SOLO DE GUITARRA
   C
G|-----------------------------------|------------------------------|
D|-----------------------------------|----------------2-3-4-5-4-3-2-|
A|-3--3?-1-3--3--1-3-1-------0-1-2-3-|-3?-1-3--3--1-3---------------|
E|---------------------3-1-3---------|------------------------------|

G|-----------------------------------|------------------------2-3-4-|
D|-----------------------------------|----------------2-3-4-5-------|
A|-3--3?-1-3--3--1-3-1-------0-1-2-3-|-3?-1-3--3--1-3---------------|
E|---------------------3-1-3---------|------------------------------|

G|-----------------------------------|------------------------------|
D|-----------------------------------|----------------2-3-4-5-4-3-2-|
A|-3--3?-1-3--3--1-3-1-------0-1-2-3-|-3?-1-3--3--1-3---------------|
E|---------------------3-1-3---------|------------------------------|

G|-------------------------------------------------|
D|-------------------------------------------------|
A|-3--3?-1-3--3--1-3--3?-1-3--3--1-3--3?-1-3--3--1-|
E|-------------------------------------------------|

G|-------------------|
D|-------------------|
A|-3-3-3-3-3-3-3-1-3-|
E|-------------------|

VERSO 3 (RITMO NORTEÑO)
    C                       G
G I------------------------------------------------------------|
D I------------------------------------------------------------|
A I-3---3---3---3---3---------5---4h5-4h5---5---5---5------0-2-|
E I---3---3---3---3---0-1-2-3---3---------3---3---3---3--3-----|

    C            G
G I--------------------------------------------------------------|
D I--------------------------------------------------------------|
A I-3---3---3------5------0-2-3----5------0-2-3----5------0-2-3--|
E I---3---3---3--3----0-3--------3----0-3--------3----0-3--------|

G|------------------------------------|
D|------------------------------------|
A|---0-2-3----0-2-3----0-2-3----0-2-0-|
E|-3--------3--------3--------3-------|
    C
G I-------------------------------------------------|
D I----------------2-2-3-2----------------2-2-3-2---|
A I?3-3---1-1-3------------?3-3---1-1-3-------------|x2
E I-------------------------------------------------|


SE REPITE EL CORO Y TERMINA EN DO:

     C
G I-----
Suggest correction
Give kudos to tab author, rate the tab!
1 2 3 4 5
comments
print report bad tab
guest
You may want to rate the tab now too:
select rating
Wanna post a correction for this tab? Suggest correction