Oops, an error
Loading. Please wait.

Un Año De Amor Bass Tab

281 views 1 this week
no commentswrite comment
1 2 3 4 5
3 more votes to show rating
add to favorites
launch autoscroll
font size
0
reset
guitar tuner
Autoscroll
slow
fast
+/-
esc
set tempo
stop
Help us to improve Ultimate-Guitar.com Take our survey!
×
Intro
                      Am               Dm
G :------------------|----------------|----------------|----------------|
D :-------------7----|------------7---|--------7-------|----------------|
A :---------------7--|--------7-------|5---8-------5---|8---7---5-------|
E :-----------------8|5---8-----------|----------------|------------7---|
   C       E7
G :----------------|
D :----------------|
A :--------7---7---|
E :8---8-----------|


Parte cantada
   Am               Dm                                C       E7
G :----------------|----------------|----------------|----------------|
D :------------7---|--------7-------|----------------|----------------|
A :--------7-------|5---8-------5---|8---7---5-------|--------7---7---|
E :5---8-----------|----------------|------------7---|8---8-----------|
   Am               Em               Am      B        F7     E7
G :----------------|----------------|----------------|----------------|
D :------------7---|--------7-------|7---7---9---9---|----------------|
A :--------7-------|5---8-------5---|----------------|8---8---7---7---|
E :5---8-----------|----------------|----------------|----------------|
   Am                   Dm               Am      B
G :--------------------|----------------|----------------|
D :------------7----|--------7-------|----------------|
A :----7------------7--|5---8-------5---|------------6---|
E :5------------------8|----------------|5---8---7-------|
   E7
G :----------------|
D :----------------|
A :7-------7-------|
E :----7-----------|
   Am               Dm               E7               Am
G :----------------|----------------|----------------|----------------|
D :----------------|--------7-------|----6---9-------|----------------|
A :--------7-------|5---8-----------|7---------------|--------7-------|
E :5---8-----------|----------------|----------------|5---8-----------|
   Am               Dm               E7               Am
G :----------------|----------------|----------------|----------------|
D :----------------|--------7-------|----6---9-------|----------------|
A :--------7-------|5---8-----------|7---------------|--------7-------|
E :5---8-----------|----------------|----------------|5---8-----------|
   E7               Am
G :----------------|----------------|
D :----6---9-------|----------------|
A :7---------------|----------------|
E :----------------|5---8---5-------|

#------------------------------SIMBOLOS EMPLEADOS------------------------------#

        Simbolo Significado     Traduccion
        h       Hammer on       Notas ligadas, siendo la primera mas grave
        p       Pull off        Notas ligadas, siendo la primera mas aguda
        /       Slide up        Arrastrar de grave a agudo
        \       Slide down      Arrastrar de agudo a grave
        ^       Bend up         Estirar la cuerda hasta otra nota mas aguda
        b       Bend            Idem pero haciendola vibrar
        r       Release bend    Pasar de cuerda estirada a posicion normal
        ~       Vibrato         Hacer vibrar con movimiento paralelo al mastil
        ()      Soft            Tocar mas flojo
              Harmonic        Armonico
              Tremolo         Subir y bajar volumen rapidamente
        x       Muted string    La cuerda no debe sonar
        *       Stop string     Parar la cuerda
Suggest correction
Give kudos to tab author, rate the tab!
1 2 3 4 5
comments
print report bad tab
guest
You may want to rate the tab now too:
select rating
Wanna post a correction for this tab? Suggest correction