Oops, an error
Loading. Please wait.

La Última Cena Tab

version 2
version 2

Whole song

37 views 1 this week
no commentswrite comment
1 2 3 4 5
3 more votes to show rating
add to favorites
launch autoscroll
font size
0
reset
how to read this tab
guitar tuner
Autoscroll
slow
fast
+/-
esc
set tempo
stop
Help us to improve Ultimate-Guitar.com Take our survey!
×
Bueno esta rola la saque de puro oído, solo la parte acústica fue muy difícil, 
me falto un cachito  del medio pero aquí la tienen.
Esta canción esta de poca madre es una de las chidas de luzbel.

Introducción 

6----------------------/-------------------------/
5----------------------/-------------------------/
4----------------------/-------------------------/
3-----4-------------12-/-----4-------------12-11-/
2-0-5---0---------0-12-/-0-5---0---------0-12-11-/
1---------2-4-2-0---12-/---------2-4-2-0---12-11-/

En esta parte se toca rápido.  Lo que se oye de más en esta parte es como 
piano ó clavecín.

6---------------------------------------------------
5---------------------------------------------------
4---------------------------------------------------
3-------5--------5--------4--------4--------5-------
2-0---5---5----5---5----4---4----4---4----5---5-----
1---3--------3--------2--------2--------3-----------

6---------------------------------------------------
5---------------------------------------------------
4---------------------------------------------------
3-----5----9----------10---------9--------8---------
2---5---5--9-------10----10----9---9----8---8-------
1-3--------7--7--8-----------7--------6-------------

Aquí se toca de la siguiente manera. Este signo(~) significa que se desliza 
la cuerda y este otro [*] significa que se tremola la cuerda; entonces donde 
estan juntos los dos, se desliza y tremola a la misma vez para que de el efecto.

6------------------------/
5------------------------/
4------------------------/
3-----7------------------/
2---7---7--7~*-2-4-0*-0--/
1-5----------------------/

Enseguida siguen unos rasgueos y estos son la secuencia.
En la última pisada se da un rasgueo un poco suave.

C#/d/d#/e/d#/e/d#/d/A/e/d/d#/d/f#/F/E/E un rasgueo

()las que estan en paréntesis son las cuerdas que tienes que tocar.

  C#   D  D#   E    A  F#    F    E
6--4---5---6---7----5--(2)--(1)--(0)-----
5--4---5---6---7---(7)-(4)--(3)--(2)-----
4-(6)-(7)-(8)-(9)--(7)-(4)--(3)--(2)-----
3-(6)-(7)-(8)-(9)--(6)-(2)--(2)--(1)-----
2-(5)-(6)-(7)-(8)--(5)--2----1----0------
1-(4)-(5)-(6)-(7)--(5)--2----1----0------


Esta es la parte final. 


6----------------------------------------------------
5----------------------------------------------------
4--0---0---------0---------2-------------------------
3----4---------2---2-----0---0-2-----0-----------0---
2--------0-1-3-------0-1---------0-1---0-1-3~4~5---0-
1----------------------------------------------------

6-----------------------------------/
5----------------0------------------/
4------0-----------0----------------/
3--------------------0---------0----/
2--1-3-----------------0-1~2-0---0*-/
1--------5-4-3-2--------------------/


Espero que les guste, después mandare el bajeo si tienen dudas ahí esta mi e~mail.
Seguiré mandando de luzbel, NOS VEMOS RAZA ROCKERA.
Suggest correction
Give kudos to tab author, rate the tab!
1 2 3 4 5
comments
print report bad tab
guest
You may want to rate the tab now too:
select rating
Wanna post a correction for this tab? Suggest correction