Oops, an error
Loading. Please wait.

Antihéroe Tab

version 1
version 1

Whole song

by M-Clan
213 views 6 this week
no commentswrite comment
1 2 3 4 5
3 more votes to show rating
add to favorites
launch autoscroll
font size
0
reset
how to read this tab
guitar tuner
×
Best way to learn
"Antihéroe"
Autoscroll
slow
fast
+/-
esc
set tempo
stop
La canción está muy sencilla, pero tiene algunos trucos en las figuras.
Escúchenla y practiquen!


H - Hammer
P - Pull
B - Bend
/ - Slide


(Intro Bateria)                    (Gtr. 1)
------------------------------------|-X-X-X----X-X-X---------------------|
------------------------------------|-X-X-X----X-X-X---------------------|
------------------------------------|-X-X-X----X-X-X---------------------|
------------------------------------|-X-X-X----X-X-X---------------------|
------------------------------------|-X-X-X----X-X-X---------------------|
------------------------------------|-X-X-X----X-X-X---------------------|

(Gtr. 1 c/distorcion)
A                              D/F#   A                G     D/F#
    H   H P        H    H P                H
------------------------------------|-------------------3-3---2-2--------|
----------------------------------3-|-------------------3-3---3-3--------|
----------------------------------2-|-------------------0-0---2-2--------|
-----------2--2------------2--2/4---|---------2-2-------0-0---0-0--------|
-------0-3-0--0--------0-3-0--------|-----0-3-0-0------------------------|
--/0-3------------0-3---------------|-(0)3-------------3-----2-----------|


(Gtr. 1)
A                              D/F#   A                G     D/F#
    H   H P        H    H P                H
------------------------------------|-------------------3-3---2-2--------|
----------------------------------3-|-------------------3-3---3-3--------|
----------------------------------2-|-------------------0-0---2-2--------|
-----------2--2------------2--2/4---|---------2-2-------0-0---0-0--------|
-------0-3-0--0--------0-3-0--------|-----0-3-0-0------------------------|
--/0-3------------0-3---------------|-(0)3-------------3-----2-----------|
                                                                         |
                                                                         |
(Gtr. 2 limpia)                                                          |
A                              D/F#   A                G     D/F#        |
------------------------------------|------------------------------------|
-------5----5----------3---2--3-----|------5---5-------------------------|
-----2----2----------2---2----------|----2---2---------------------------|
------------------------------------|------------------------------------|
------------------------------------|------------------------------------|
------------------------------------|------------------------------------|


[ESTRIBILLO]
(Gtr. 1)
ARRIBA LAS MANOS ABAJO LOS PIES      SOY EL ANTIHEROE NADA ME QUEDA BIEN
A                              D/F#   A                G     D/F#
    H   H P        H    H P                H
------------------------------------|-------------------3-3---2-2--------|
----------------------------------3-|-------------------3-3---3-3--------|
----------------------------------2-|-------------------0-0---2-2--------|
-----------2--2------------2--2/4---|---------2-2-------0-0---0-0--------|
-------0-3-0--0--------0-3-0--------|-----0-3-0-0------------------------|
---0-3------------0-3---------------|-(0)3-------------3-----2-----------|


TENGO PROBLEMAS   QUE RESOLVER       ME CAIGO EN LOS CHARCOS NO PUEDO BEBER
A                              D/F#   A                G     D/F#
    H   H P        H    H P                H
------------------------------------|-------------------3-3---2-2--------|
----------------------------------3-|-------------------3-3---3-3--------|
----------------------------------2-|-------------------0-0---2-2--------|
-----------2--2------------2--2/4---|---------2-2-------0-0---0-0--------|
-------0-3-0--0--------0-3-0--------|-----0-3-0-0------------------------|
---0-3------------0-3---------------|-(0)3-------------3-----2-----------|


SOY SOLO UNA SOMBRA DE LO QUE TU CREES LA GENTE SE RIE CUANDO HABLO EN INGLES
   D                                    A
    H   H P        H    H P      B         H
------------------------------------|------------------------------------|
------------------------------------|------------------------------------|
---------2-2--2----------2-2--------|------------------------------------|
-------0-3-0--0--------0-3-0--------|---2-2---2-2--------2---2-------2---|
---0-3-------------0-3--------------|---0-0-3-0-0--------0-3-0-------0---|
-------------------------------2-(3)|(3)-------------0-3-----------------|

NO TENGO CARISMA NI PAGINA WEB       SOY EL ANTIHEROE NO ME TRATE DE USTED (vuelve al principio)

   G                 F#                B              E F#5  G5  G#5
---2-----------------2--------------|--X---------------------------------|
---2-----------------2--------------|--X---------------------------------|
---0-----------------3--------------|--8---------------------------------|
---0-----------------4--------------|--9---------------------------------|
---------------------4--------------|--9--------------2-4-----5---6------|
---3-----------------2--------------|--7--------------0-2-----3---4------|


[PUENTE]
SIENTO QUE MI ALIENTO YA NO TE EXCITA NO TENGO TALENTO        OH___ NO_____
(Gtr. 1)
D                     A               D                E 
0-----------------------------------|-0-------------------0-------------0|
3---------------------2-------------|-3-------------------0-------------0|
2---------------------2-------------|-2-------------------1-----------1--|
0---------------------2-------------|-0-------------------2--------------|
----------------------0-------------|---------------------2--------------|
------------------------------------|-----------------(0)-0--------------|
                                                                         |
(Gtr. 2)                                                                 |
D5                    A               D                E                 |
               P                                    P                    |
------------------------------------|----------------------0-----------0-|
-------------8(7)---7/9-------------|-----------7-8(7)-----0------------0|
7-----------7----7------------------|-7--------7------7---------------1--|
7----------7------------------------|-7-------7--------7-7/9-------------|
5-----------------------------------|-5----------------------------------|
------------------------------------|------------------------------------|

SOY EL PERDEDOR EL ETERNO ACTOR SECUNDARIO
(Gtr. 1)
       D     C#m     Bm      E        A               
------------------------------------|------------------------------------|
------------------------------------|------------------------------------|
------------------------------------|-2--------------2---(2)-------------|
-------7------6-------4-------------|-2--------------2---(2)-------------|
-------5------4-------2------2------|-0--------------0---(0)-------------|
-----------------------------0------|------------------------------------|
                                                                         |
(Gtr. 2)                                                                 |
       D     C#m     Bm      E        A                                  |
------------------------------------|------------------------------------|
----------3-----3-------3-----3-----|---------------3(2)-----------------|
-----------2-----2-------2------2---|-2------2-2----2(2)--------2-2------|
-------0----------------------------|-2------2-2----2(2)--------2-2------|
--------------4-------2-------------|-0------0-0----0(0)--------0-0------|
-----------------------------0------|------------------------------------|


ES MEJOR QUE NO HAGAS NINGUN COMENTA__RIO______                wow!
(Gtr. 1)
       Bm    C#m          D           A        E               G
------------------------------------|------------------------------------|
------------------------------------|------------------------------------|
------------------------------------|-2----------------------------------|
-------4------6-----------7---------|-2--------2---------------5-5----5-5|
-------2------4-----------5---------|-0--------2---------------5-5----5-5|
------------------------------------|----------0---------------3-3----3-3|
                                                                         |
(Gtr. 2)                                                                 |
       Bm    C#m          D           A        E               G                  |
------------------------------------|--------------0---(0)---------------|
-----------0-------0-----------0----|--------------0---(0)---------------|
------------------------------------|-2---(0)----------------------------|
---------3-------3----------3-------|-2---(0)--2---------------5-5----5-5|
-------2------4-----------5---------|-0--------2---------------5-5----5-5|
------------------------------------|----------0---------------3-3----3-3|

Después del SOLO repite el riff de la introducción. Suerte!
Suggest correction
Give kudos to tab author, rate the tab!
1 2 3 4 5
comments
print report bad tab
guest
You may want to rate the tab now too:
select rating
Wanna post a correction for this tab? Suggest correction