Oops, an error
Loading. Please wait.

Antihéroe Tab

version 2
version 2

Whole song

by M-Clan
120 views 1 this week
no commentswrite comment
1 2 3 4 5
3 more votes to show rating
add to favorites
×
Save as Personal and add changes to this tab that will be seen only by you. Learn more ›
×
You can save this tab as Personal to edit and correct it or add notes. All changes will be seen only by you. Learn more »
save as personal
new!
launch autoscroll
font size
0
reset
how to read this tab
guitar tuner
Autoscroll
slow
fast
+/-
esc
set tempo
stop
M-Clan es el mejor grupo del mundo!!! 
Me engancho desde el disco Usar y Tirar 
y a partir de ahí me compre los dos siguientes 
discos y los dos primeros. Me encantan todas las 
canciones sin excepció es la mejor partitura que
hay de esta cancion ya que incluye 
los acordes, el solo, y hasta el bajo.

E-----------------------------------------------------3-5------------
B--------------------------------------------------3-----------------
G--5 deslizar-a 0----------------------------------------------------      G  D
D--------------------------------------------------------------------
A--------------------------0-3-0-0------0-3-0----------------0-3-0-0-
E---------------------0-3-----------0-3-------------------0-3--------


E-----0-0---0-0----0---------------0-0----0-0---------
B-----------------------3-2-3-3-----------------------       
G--2------2------2---------------2-------2------2-----      G  D
D-----------------------------------------------------
A-----------------------------------------------------
E-----------------------------------------------------


E-----0-0---0-0----0----------3-5-----0-0----0-0-----
B------------------------3-2-3-----------------------       
G--2------2------2---2--------------2-------2------2-      G  D
D-----------------------------------------------------
A--------------------------------------------------------
E--------------------------------------------------------

A
Arriba las manos, abajo los pies, E-----3-5-
                                  B--3--------
A
 soy el antihéroe,
G       D             
nada se me da bien. 
A
Tengo problemas que resolver, E-----3-5-
                             B--3--------
A                         G        D     D
me caigo en los charcos, no puedo beber. Soy solo
                                      A
una sombra de lo que tu crees, la gente se rie cuando 

              (deslizar A a 7° traste)               
hablo en ingles. 
G                          F#       D
No tengo carisma ni pagina web, soy el antihéroe


                           E----------------------------3-5------------------
                           B----5-5---5-5---5-------3--------5-5----5-5----5- G      D
                     G--------------------7-6--------------------------
                     D--7-----7------7---------------7------7------7---
E    F#    G        G#
no  me    trate   de             Usted.
                        


A                              D - D   A
 El primo bastardo de Superman,             la flor y la nata
      G   D        A                             Dm D   A
de la mediocridad, el hazmerreír que hace llorar,          me atracan los niños
          G  D   D                    A
de la vecindad. El hijo que nadie querría tener, me pierdo en el súper 
                       G                         F#
me huelen los pies. No hay mas que mirarme para comprender,
       
                                      E----------------------------3-5------------------
                                        B----5-5---5-5---5-------3--------5-5----5-5----5- G D 
                                  G--------------------7-6--------------------------
                                  D--7-----7------7---------------7------7------7---
D                     E  F#   G      G#              
que soy el antihéroe, no  me  trate  de   usted.

G-------------------
D-------2-2--------
A--0-4------2-0---
E-------------------
D                                A(5° traste)
Siento que mi aliento             ya no


                        E--------0-
                        B----------
                        G-----1----
                        D--2-------
                      D             E            D            E               D        E A
te excita, no tengo talento...              Soy el perdedor, el eterno actor secundario,
D             E           D               A   E(deslizAr a 5° traste)      G      D
es mejor que no hagas ningún comentarioooooooo...     

E----------------------------3-5-------------------------
B----5-5---5-5---5-------3--------5-5----5-5----5------- G   D  
G--------------------7-6--------------------------------
D--7-----7------7---------------7------7------7---------


E--2-------------------------------------------------------------------
B--2---------------------------------7-5-----------------10~ ~  -----       
G--2-deslizar barra a  8° traste -------7-5--------------------------
D--2-------------------------------------------7---5-7----------------
A--2---------------------------------------------7---------------------
E--X-------------------------------------------------------------------      
G               F#
Arriba las manos, abajo los pies,
D                 E   F#    G        G#      A
soy el antihéroe, no me   trate de usted.

E(BAJO)--0-3-0-5(8 veces)-3-3-3-2-2-2-3-0-5(8veces)-
Tengo problemas que resolver, 
me caigo en los charcos, no puedo beber. 

E--2--5-3-2-0---            
B--3-------------
G--2-------------
D--0-------------
A--0------------
E--0------------                    A
Soy solo una sombra de lo que tu crees, la gente se rie cuando 
              (deslizar A a 7° traste)               
hablo en ingles. 
G                          F#       D
No tengo carisma ni pagina web, soy el antihéroe

                                E----------------------------3-5---------------------
                                B----5-5---5-5---5-------3--------5-5----5-5----5----         
                                G--------------------7-6-----------------------------
                                D--7-----7------7---------------7------7------7------
E    F#    G        G#
no  me    trate   de             usted.

                                E----------------------------3-5---------------------
                                B----5-5---5-5---5-------3--------5-5----5-5----5----         
                                G--------------------7-6-----------------------------
                                D--7-----7------7---------------7------7------7------
G            D
No  me    trate   de             usted.

                                E----------------------------3-5----------------------
                                B----5-5---5-5---5-------3--------5-5----5-5----5-----         
                                G--------------------7-6------------------------------
                                D--7-----7------7---------------7------7------7-------
G           D
No  me    trate   de             usted.
E----------------------------3-5---------------------------
B----5-5---5-5---5-------3--------5-5----5-5----5-------         
G--------------------7-6------------------------------------
D--7-----7------7---------------7------7------7-----------
G(5°traste)     D(5°traste)
Suggest correction
Give kudos to tab author, rate the tab!
1 2 3 4 5
comments
print report bad tab
guest
Wanna post a correction for this tab? Suggest correction