Oops, an error
Loading. Please wait.

Aquí No Pasa Nada Tab

60 views 1 this week
no commentswrite comment
1 2 3 4 5
3 more votes to show rating
add to favorites
launch autoscroll
font size
0
reset
how to read this tab
guitar tuner
Autoscroll
slow
fast
+/-
esc
set tempo
stop
Help us to improve Ultimate-Guitar.com Take our survey!
×
(Carlos Tarque/ Priscus/ M Clan)
E-----------------------------------------      =  *1
B--------------------------------3-------
G-------------------------5------3-------
D-5-8-7-------8-7-8-------------------                              
A----------8-----------------------------
E-----------------------------------------

E----------------------------------------- =  *2
B------------------------------3-3-------
G-------------------------5----3-3-------
D-5-8-7-------8-7-8-------------------
A----------8-----------------------------
E-----------------------------------------

E-----------------------------------------  =  *3
B-------------------------------3-3-3---
G-------------------------5-----3-3-3---
D-5-8-7-------8-7-8-------------------
A----------8-----------------------------
E-----------------------------------------

*1, *3, *2


Tu pretendías ser la reina del rock,
E-----------------------------------------
B-----------------------3-3--------------
G------------------5----3-3--------------
D-5-8-----8-7-8------------------------
A-------8--------------------------------
E-----------------------------------------

yo el mas peligroso de los rockers,
E-----------------------------------------
B-----------------------3-3--------------
G------------------5----3-3--------------
D-5-8-----8-7-8------------------------
A-------8--------------------------------
E-----------------------------------------

me traicionaste con un dealer y yo 
E-----------------------------------------
B-----------------------3-3--------------
G------------------5----3-3--------------
D-5-8-----8-7-8------------------------
A-------8--------------------------------
E-----------------------------------------

de pronto me encontré barriendo un karaoke.
E------------------------------------------------------------
B------------------------------------------------------------
G---------------------------0--------------------------------
D-5-3-5-3(varias veces)---3--5-3-5-3(varias veces)--
A-------------------------------------------------------------
E--------------------------------------------------------------

                C G
Aquí no pasa nada, 
      C G
no pasa nada. 

G      C                    D
Insatisfecho como un Rolling Stone,
C                    D
con todo y un nada por delante,
C                  D
me puse a escribir tu canción 
(silencio)
no encuentro quien la cante.
E-----------------------------------------      
B--------------------------------3-------
G-------------------------5------3-------
D-5-8-7-------8-7-8-------------------                              
A----------8-----------------------------
E-----------------------------------------

E-----------------------------------------      
B--------------------------------3-------
G-------------------------5------3-------
D-5-8-7-------8-7-8-------------------                              
A----------8-----------------------------
E-----------------------------------------

Viciosos los ojos que te ven corazón, 
E-----------------------------------------      
B--------------------------------3-------
G-------------------------5------3-------
D-5-8-7-------8-7-8-------------------                              
A----------8-----------------------------
E-----------------------------------------
no estas criando malvas, eso ya es bastante,
E----------------------------------------      
B--------------------------------3-3----
G-------------------------5------3-3----
D-5-8-7-------8-7-8------------------                              
A----------8----------------------------
E----------------------------------------
que tal te ha ido con tu carreron,
E-----------------------------------------      
B--------------------------------3-3-3--
G-------------------------5------3-3-3--
D-5-8-7-------8-7-8-------------------                              
A----------8-----------------------------
E-----------------------------------------
siempre fuiste buena por detrás y por favor.
E------------------------------------------------------------
B------------------------------------------------------------
G---------------------------0--------------------------------
D-5-3-5-3(varias veces)---3--5-3-5-3(varias veces)--
A-------------------------------------------------------------
E--------------------------------------------------------------

              C G
Aquí no pasa nada, 
       C G
no pasa nada.
C            D
El cielo sigue azul
C                   D
los negros cantan blues,
C                  D
me puse a escribir tu canción,
(silencio)
en donde estabas tu.

G Bb C o se puede hacer el solo.

D     C                 G
Se me durmió la razón,
G      C           D      
se me fue la inspiración
D      Bb            Am      
con el ultimo Long John
C                  
por tu lado de colchón,

G C G C A G C o lo siguiente
E--------------------------------------------------------------15-------
B-----------------1-2-3 ~ ----10 ~ ~ -10-10-13-10-17-------17------17---
G-0-2-0-2-0-2-----------------------------------------------------------
D-----------------------------------------------------------------------
A-----------------------------------------------------------------------
E-----------------------------------------------------------------------


E------------------------------------20-20-20-17-17-15-12-10-15/12/10/8/5-----------
B------------------------------------------------------------------------------------------------
G-12-14-12-12-12-14--5-6-7----------------------------------------------------------------
D-------------------------------------------------------------------------------------------------
A-------------------------------------------------------------------------------------------------
E--------------------------------------------------------------------------------------------------

G y cortar                              G Bb  C
Adiós cariño yo me tiro del tren
(Silencio)
!! Próxima parada: cardiaca!!.
E------------------------------------------------------------
B------------------------------------------------------------
G---------------------------0--------------------------------
D-5-3-5-3(varias veces)---3--5-3-5-3(varias veces)--
A-------------------------------------------------------------
E--------------------------------------------------------------
                  C G
Aquí no pasa nada,
            C G
No pasa nada

 G      C                  D
Insatisfecho como un Rolling Stone,
C                     D
con todo y un nada por delante,
C                  D
me puse a escribir tu canción 
(silencio)
no encuentro quien la cante.

 

Donde este el asterisco, se ha de tocar el solo especifico.
Suggest correction
Give kudos to tab author, rate the tab!
1 2 3 4 5
comments
print report bad tab
guest
You may want to rate the tab now too:
select rating
Wanna post a correction for this tab? Suggest correction