Oops, an error
Loading. Please wait.

Espantapájaros Tab

23 views 1 this week
no commentswrite comment
1 2 3 4 5
3 more votes to show rating
add to favorites
launch autoscroll
font size
0
reset
how to read this tab
guitar tuner
×
Best way to learn
"Espantapájaros"
Autoscroll
slow
fast
+/-
esc
set tempo
stop
UN SALUDO DESDE LA PUERTA DE ENTRADA AL MUNDO MAYA, CAMPECHE, MEXICO
ESTA ROLA LA ESCUCHE POR ACCIDENTE BAJANDO UNA DE MIGUEL LUNA
PERO ME GUSTO MUCHO, YA HASTA ME HICE FAN DE LA BANDA!!
Saludos para España

INTRO:

es la siguiente figura con base en las primeras cuerdas acústicas

    G                                                           CDG
e---3---3---5---5---3---3---2--2---3---3---5---5---3---3---2---2~~--3--
B-----0---0---0---0---0---0---0--0---0---0---0---0---0---0---0------3--
G-------------------------------------------------------------------0--
D-------------------------------------------------------------------0--
A-------------------------------------------------------------------2--
E---3-------3-------3-------3------3-------3-------3-------3--------3--


   C       G
e-------------------------------
B--8s10---8~--------------------
G--7S9----7~--------------------
D--------------7p5-7s9~---------
A-------------------------------
E-------------------------------


ESTROFA 1:

   Bm7                   Am7            G  C G
Mi corazón de paja se quemaba en la Ciudad
   Bm7                      Am7          G  C G-G7
Tus alas lo apagaron, me ayudaron a escapar
C                      Cm                     G  C  G-G7
Lejos queda el tráfico esto es oro para respirar, eih
   C                       Cm
Ya no se ven las fábricas, negras de monóxido
 D
Entra en este campo de mi mano y sin hablar

CORO:

G         Bm7               Am7      F - D
No quiero ver más flores de plástico
G                  Bm7           Am7
No quiero volver a ser un espantapájaros
   Cm             D  G C G
Perdido en la ciudad


ESTROFA 2:

  Bm7                 Am7             G  C  G
Amor fotosintético, semilla, savia y sal
    Bm7                        Am7         G  C  G-G7
Los duendes de la lluvia nos invitan a bailar
     C                       Cm
El escudo de la atmósfera protege mi burbuja
             G        C   G-G7
que ahora es para ti, uh ooh
C                      Cm
somos niños otra vez cayendo por un tobogán
D                                           Dsus4 - D
entra en mi garganta y no preguntes nada mas

CORO:

G         Bm7               Am7      F - D
No quiero ver más flores de plástico
G                  Bm7           Am7
No quiero volver a ser un espantapájaros
   Cm             D
Perdido en la ciudad

SOLO:

   Em           Am         Em
e-------------------------------
B-------------------------------
G-------------------------------
D-------------------------------
A---5s7s2--2s5--0---------------
E------------------3h5-2-3-0----

    Em          Am          Em
e-------------------------------
B-------------------------------
G-------------------------------
D-----------------------0-2-2---
A---5s7--2-2s5--0---0-2---------
E-------------------------------

    Em          Am          Em
e-------------------------------
B-------------------------------
G---7s9--4-4s7--2---2h4-2-0-----
D---------------------------2---
A-------------------------------
E-------------------------------

    Em          Am              Em
e---------------------------------------------
B---------------------------------------------
G---7s9--4-4s7--2-----------------------------
D--------------------------12-14-14---14~~~---
A-------------------12-14---------------------
E---------------------------------------------

           Am
e-------------------------------
B-------------------------------
G-----9----11-11bend---9--9~~---
D---9---9-----------------------
A-------------------------------
E-------------------------------

    Em
e----------------12----14bb--14b-14-12b-----
B-----------8s12----12----------------------
G-----9-11b---------------------------------
D---9---------------------------------------
A-------------------------------------------
E-------------------------------------------

 Am
e--------------------------------------------
B----10s12-10-8---8-10----10s12-10-8---------
G---------------9--------------------9-7-9---
D--------------------------------------------
A--------------------------------------------
E--------------------------------------------


    C                      Cm                     G  C  G-G7
Ooh Lejos queda el tráfico esto es oro para respirar, eih
C                      Cm
somos niños otra vez cayendo por un tobogán
D                                            Dsus4 - D
entra en mi garganta y no preguntes nada mas

CORO:

G         Bm7               Am7      F - D
No quiero ver más flores de plástico
G                  Bm7           Am7    Cm - D
No quiero volver a ser un espantapájaros

G         Bm7               Am7      F - D
No quiero ver más flores de plástico
G                  Bm7           Am7
No quiero volver a ser un espantapájaros
   Cm             D
Perdido en la ciudad

SALIDA:

   Em           Am         Em
e-------------------------------
B-------------------------------
G-------------------------------
D-------------------------------
A---5s7s2--2s5--0---------------
E------------------3h5-2-3-0----

    Em          Am          Em
e-------------------------------
B-------------------------------
G-------------------------------
D-----------------------0-2-2---
A---5s7--2-2s5--0---0-2---------
E-------------------------------

    Em          Am          Em
e-------------------------------
B-------------------------------
G---7s9--4-4s7--2---2h4-2-0-----
D---------------------------2---
A-------------------------------
E-------------------------------

    Em          Am  Am   Am7~~~

e------------------------------
B------------------------------
G---7s9--4-4s7-2~~~~~~~--------
D------------------------------
A------------------------------
E------------------------------

FIN
Suggest correction
Give kudos to tab author, rate the tab!
1 2 3 4 5
comments
print report bad tab
guest
You may want to rate the tab now too:
select rating
Wanna post a correction for this tab? Suggest correction