Oops, an error
Loading. Please wait.

Los Periódicos De Mañana Chords

version 1
version 1

Whole song

186 views 1 this week
no commentswrite comment
1 2 3 4 5
3 more votes to show rating
add to favorites
launch autoscroll
font size
0
reset
transpose
0
reset
simplify chords
display chords
guitar tuner
Autoscroll
slow
fast
+/-
esc
set tempo
stop
Help us to improve Ultimate-Guitar.com Take our survey!
×
Ésta es una de mis modificaciones, esta vez de la transcripción de:
Javi Tormo (javitormo@ Aquí sólo he añadido el Do como prechorus
(que queda muy bien, todo sea dicho) y la intro.


INRO

e---------------3p0-3p0h3----------------0---0----
B--0--1--3--5---------------0--1--3---------0-----
G--0--2--4--5---------------0--2--4--2------------
D------------------------------------2------------
A-------------------------------------------------
E-------------------------------------------------

e--------------3p0-3p0h3-2~-2-------------
B--0--1--3--5-----------------------------
G--0--2--4--5-----------------------------
D------------------------------0--2--4----
A-----------------------------------------
E-----------------------------------------

G         C               G            D7            SOL
Desnudo al sol, mientras el mundo se derrumba a mí alrededor,
           C              G             D7         G
Desnudo al sol no hay por que pedir perdón
         C              G             D7                G
Me sorprendió una gran tormenta de energía positiva y yo
           C         D  - (C)      
Desnudo al sol y nada más.
          G                      C             G      
Hay quien dice que puede ser perjudicial sin embargo 
            D7         G
A mi no me hace mal, la mentira esta escrita 
           C             D
en los periódicos de mañana.
        G                      C      
No me interesa lo que digan los políticos,
       G                  D7
No me creo de la misa  a la mitad 
      G                     C            D
La mentira esta escrita en  los periódicos de mañana

Desnudo al sol como en la era del hombre paleolítico
Miro el reloj pero hace tiempo que paro,
Se me olvido que te gustaría haber montado una revolución
Hazme el amor desnudo al sol

Estribillo 2 veces 

Na, na , na , na , na fundiendo como estribillo
Suggest correction
Give kudos to tab author, rate the tab!
1 2 3 4 5
comments
print report bad tab
guest
You may want to rate the tab now too:
select rating
Wanna post a correction for this tab? Suggest correction