Oops, an error
Loading. Please wait.

Quédate A Dormir Bass

by M-Clan
137 views 1 this week
no commentswrite comment
1 2 3 4 5
3 more votes to show rating
add to favorites
launch autoscroll
font size
0
reset
guitar tuner
×
Best way to learn
"Quédate A Dormir"
Autoscroll
slow
fast
+/-
esc
set tempo
stop
Artist:    Mclan
Song:      Quedate a dormir
Tabbed by: Martín Endara


Verso/ Coro
G-----------
D-2-3---2---
A----------- x12
E---------3-


Interludio

G-----------------------------------
D-----------------------------------
A-------------------55555555--------
E-55555555--33333333--------00000000 x2 *

*En la segunda repetición luego de Open E
 se toca A--3--- (C)

Interludio II

G--------------------------
D-----------7-5------------
A-3-7-5-7-3-----3-7-5-7----
E----------------------5-3-
Suggest correction
Give kudos to tab author, rate the tab!
1 2 3 4 5
comments
print report bad tab
guest
You may want to rate the tab now too:
select rating
Wanna post a correction for this tab? Suggest correction