Oops, an error
Loading. Please wait.

Pásame La Botella Tab

133 views 1 this week
no commentswrite comment
1 2 3 4 5
3 more votes to show rating
add to favorites
launch autoscroll
font size
0
reset
how to read this tab
guitar tuner
Autoscroll
slow
fast
+/-
esc
set tempo
stop
Help us to improve Ultimate-Guitar.com Take our survey!
×
La neta no me gusta esta cancion, pero la saque asi como en
un minuto y como vi que no esta la mande, va asi acompañando
la voz en el coro:


e-/-------------------------------------------
B-/-----8-6-5-6------------------6-5--3-5~----
G-/-5-5---------5~-7---7-7-7-7-5--------------
D-/-------------------------------------------
A-/-------------------------------------------
E-/-------------------------------------------


e-/-------------------------------------------
B-/-----8-6-5-6------------------6-5-3--------
G-/-5-5---------5~-7---7-7-7-7-5-------5~-----
D-/-------------------------------------------
A-/-------------------------------------------
E-/-------------------------------------------


Cualquier duda, me informan, o ya que si eres mujer, estas bonita
y quieres platicar con alguien especial me escribes.
Suggest correction
Give kudos to tab author, rate the tab!
1 2 3 4 5
comments
print report bad tab
guest
You may want to rate the tab now too:
select rating
Wanna post a correction for this tab? Suggest correction