Oops, an error
Loading. Please wait.

Pásame La Botella Bass

34 views 1 this week
no commentswrite comment
1 2 3 4 5
3 more votes to show rating
add to favorites
×
Save as Personal and add changes to this tab that will be seen only by you. Learn more ›
×
You can save this tab as Personal to edit and correct it or add notes. All changes will be seen only by you. Learn more »
save as personal
new!
launch autoscroll
font size
0
reset
guitar tuner
Autoscroll
slow
fast
+/-
esc
set tempo
stop
PASAME LA BOTELLA!!


uoo uoooo ya  you know
yeah y yeaahh
mach and daddy
mach and daddy
mach and daddy
pasa pasa pasa pasa
uoo uoooo
yeah y yeaahhnaa


    C        C        Fm       Fm
G|-------------------------------------------
D|-----2--5-----2--5-------------------------
A|--3--------3-----------0--3-----0--3-------
E|--------------------1--------1-------------

    Hay   algo   que  quiero   decir


    G        G        C        G
G|-------------------------------------------
D|-----------------------2--5----------------
A|-----2--5-----2--5--3-----------2--5-------
E|--3--------3-----------------3-------------

    Esto no me puede  estar pasando a mi


    C        C        Fm       Fm
G|-------------------------------------------
D|-----2--5-----2--5-------------------------
A|--3--------3-----------0--3-----0--3-------
E|--------------------1--------1-------------

    La  chica  que  queria  para  mi


    G        G        C        G
G|-------------------------------------------
D|-----------------------2--5----------------
A|-----2--5-----2--5--3-----------2--5-------
E|--3--------3-----------------3-------------

  Es traicionera y me quemaba hasta morir


REPITE VERSO:


    C        C        Fm       Fm
G|-------------------------------------------
D|-----2--5-----2--5-------------------------
A|--3--------3-----------0--3-----0--3-------
E|--------------------1--------1-------------

    Hay   algo   que  quiero   decir


    G        G        C        G
G|-------------------------------------------
D|-----------------------2--5----------------
A|-----2--5-----2--5--3-----------2--5-------
E|--3--------3-----------------3-------------

    Esto no me puede  estar pasando a mi


    C        C        Fm       Fm
G|-------------------------------------------
D|-----2--5-----2--5-------------------------
A|--3--------3-----------0--3-----0--3-------
E|--------------------1--------1-------------

    La  chica  que  queria  para  mi


    G          G        G
G|-------------------------------------------
D|-------------------------------------------
A|-----2--5-------2--5-----2--5-----2--5-----
E|--3----------3--------3--------3--------3(se cuelga ahi)

Es traicionera, es traicionera y...


ESTRIBILLO:

             Fm       Fm
G|-------------------------------------------
D|-------------------------------------------
A|--------------0--3-----0--3----------------
E|-----------1--------1----------------------

  Pasame le botella!!!


    G        G        C        G
G|-------------------------------------------
D|-----------------------2--5----------------
A|-----2--5-----2--5--3-----------2--5-------
E|--3--------3-----------------3-------------

    Voy  a  beber en  nombre de ella


   C        C        Fm       Fm
G|-------------------------------------------
D|----2--5-----2--5--------------------------
A|-3--------3-----------0--3-----0--3--------
E|-------------------1--------1--------------

           Pasame le botella!!!


    G        G        C        G
G|-------------------------------------------
D|-----------------------2--5----------------
A|-----2--5-----2--5--3-----------2--5-------
E|--3--------3-----------------3-------------

    Voy  a  beber en  nombre de ella


y bueno...toda la cancion sigue la misma escala todo el tiempo

un tema facil xD


Para tavito (H)
IDOLO!!
Suggest correction
Give kudos to tab author, rate the tab!
1 2 3 4 5
comments
print report bad tab
guest
Wanna post a correction for this tab? Suggest correction