Oops, an error
Loading. Please wait.

Al Patíbulo Tab

by Machuca
32 views 1 this week
no commentswrite comment
1 2 3 4 5
3 more votes to show rating
add to favorites
launch autoscroll
font size
0
reset
how to read this tab
guitar tuner
×
Best way to learn
"Al Patíbulo"
Autoscroll
slow
fast
+/-
esc
set tempo
stop
es primera vez que hago una tablatura asi que no me #%##$^
si no esta muy bien. creo que suena bien

es solo cortito de guitarra que suena
desde el minuto 2 mas o menos en adelante
vi que no estaba asi que me atrebi a subir este que hice.

|----------------------------|
|----------------------------|
|----------------------------|
|---------------5--7--7/9~---|
|--5/7--7--7--7--------------|
|----------------------------|


|-------------------------------------||
|-------------------------------------||
|---------------------------7-----7---||
|----------------5--7--7/9-----9------||
|--5/7--7--7--7-----------------------||
|-------------------------------------||


|----------------------------------|
|-------8-----8-----8--10--10/12---|
|--7/9-----9-----9-----------------|
|----------------------------------|
|----------------------------------|
|----------------------------------|


|--------10------10----10----10---------------------||
|-10/12------12-----12----12----12-12--10--10-8-7~--||
|---------------------------------------------------||
|---------------------------------------------------||
|---------------------------------------------------||
|---------------------------------------------------||
Suggest correction
Give kudos to tab author, rate the tab!
1 2 3 4 5
comments
print report bad tab
guest
You may want to rate the tab now too:
select rating
Wanna post a correction for this tab? Suggest correction