Oops, an error
Loading. Please wait.

Corazón Desilucionado Bass Tab

16 views 1 this week
no commentswrite comment
1 2 3 4 5
3 more votes to show rating
add to favorites
launch autoscroll
font size
0
reset
guitar tuner
×
Best way to learn
"Corazón Desilucionado"
Autoscroll
slow
fast
+/-
esc
set tempo
stop
    [intro]

G]-------------------¦-----------------------------------
D]-------------------¦-----------------------------------
A]-7--3-3--5-5-------¦--7---3-3-0-0----------------------
E]-------------------¦-----------------------------------


    [verso]

G]--------------------------------
D]-------------------------------- 
A]--7--3--5----------------------- x8
E]--------------------------------


    [coro] 

G]------------¦-----------¦----------¦-----------¦---------------------
D]------------¦-----------¦----------¦-----------¦---------------------
A]--3--7------¦--------7--¦-3--7-----¦-----------¦-7-3-3-5-5-7-3-3-0-0
E]------------¦-3---------¦----------¦-3---5-----¦----------------------


se repite


G]---------------------------------------------
D]---------------------------------------------  x2
A]-7---3--------6-----------------------------
E]-----------3---------------------------------


G]---------------------------------------------------------------
D]---------------------------------------------------------------
A]-7---3---5---7-------------------------------------------  X2
E]---------------------------------------------------------------


    outro

G]---------------------------------------------------------------
D]---------------------------------------------------------------
A]-7--3-----------7------------------------------------------
E]------------3-----------------------------------------------


 TaB HeCHa por  CHuY (BASS)

 Correcciones,dudas,recetas,chismes,comentarios,chistes 
  a     chuy_nomas@
Suggest correction
Give kudos to tab author, rate the tab!
1 2 3 4 5
comments
print report bad tab
guest
You may want to rate the tab now too:
select rating
Wanna post a correction for this tab? Suggest correction