Oops, an error
Loading. Please wait.

Mi Callejón Chords

4 views 1 this week
no commentswrite comment
1 2 3 4 5
3 more votes to show rating
add to favorites
launch autoscroll
font size
0
reset
transpose
0
reset
display chords
guitar tuner
×
Best way to learn
"Mi Callejón"
Autoscroll
slow
fast
+/-
esc
set tempo
stop
La intro se toka dos veces, despues va siempre al
terminar cada oración. El tiempo de cada nota se lo 
pones tu.
 
intro:
       G        C        G        F
e -------------------------------------------
B -------------------------------------------
G -------------------------------------------
D ---5-5-5----8-8-8----5-5-5----3-3-3--------
A ---5-5-5----8-8-8----5-5-5----3-3-3--------
E ---3-3-3----6-6-6----3-3-3----1-1-1--------

  C  
  Encontré a mis amigos,
  (intro)
  C
  nada cambió, todo va mal, 
  (intro)
  C
  yo lloré en el silencio,
  (intro)
  C
  cerré mis ojos, 
  nadie me escuchó

Coro:
 A              G           
 Alguien gritó, vuelve ya,

      D              
 pero ya no se podía

     A      A G A  
 de tanto luchar, 

 A                 G
 el castigo tiene un límite,

 D            A G A
 sólo quería descansar,

 A                 G 
 el castigo tiene un límite,
 
    D
 un cuerpo sin vida, 
 
    A G A
 un alma sin dolor
 
(en esta estrofa se tokan las mimas notas, 
tal cual como aparece en la primera estrofa)
   Y los chicos en la esquina, 
   siguen vendiendo sólo dolor,
   ya lo tengo en el aliento, 
   mi callejón se está muriendo.

Coro: ...........
Intermedio:                         
e --------------------   -----------------------
B --------------------   -----------------------
G --------------------   -----------------------
D ---7----10----12----   ----------14-----------
A ---5-----8----10----   ----------12-----------
E --------------------   ----------------------- 
                        Cuando entra la voz se le
                        agrega esta nota al final.


Si alguien te llama, estarás ahi?
Si alguien busca herirte, lo harás sufrir?
Basta de cagarte, puedes salir!!!
Mira cómo estamos, mirra dónde estamos!!!

Coro: ......
Fin: 
e ----------------------------------------------
B ----------------------------------------------
G ----------------------------------------------
D ----------------------------------------------
A ---5--8--5--3----7--10--7--5----9--12--7------
E ---3--6--3--1----5---8--5--3----7--10--5------ 

Nota: Ta muy facil la canción. Un saludo pa la 
 Pendeja, y !Grande Machuca¡.
Suggest correction
Give kudos to tab author, rate the tab!
1 2 3 4 5
comments
print report bad tab
guest
You may want to rate the tab now too:
select rating
Wanna post a correction for this tab? Suggest correction