Oops, an error
Loading. Please wait.

Como Nubes A Mi Té Chords

by Maga
23 views 1 this week
no commentswrite comment
1 2 3 4 5
3 more votes to show rating
add to favorites
launch autoscroll
font size
0
reset
transpose
0
reset
display chords
guitar tuner
Autoscroll
slow
fast
+/-
esc
set tempo
stop
Help us to improve Ultimate-Guitar.com Take our survey!
×

Sé que en este riff hay fallos. Pero creo que es bastante cercano
y os sonara bastante bien si lo haceis con el ritmo de la canción.

Riff

E  |------------------------------------------------------------||
B  |------------------------------------------------------------||
G  |------0--0-----0-----0-----0-----0--------0--------0--5--4--||
D  |---------------------------------------3--------3-----------||
A  |---3--------3-----3-----3-----3-----5--------5--------------||
E  |------------------------------------------------------------||

E  |------------------------------------------------------------||
B  |-------------------------------------------------------5----||
G  |------0--0-----0-----0-----0-----0--------0--------0--------||
D  |---------------------------------------3--------3-----------||
A  |---3--------3-----3-----3-----3-----5--------5--------------||
E  |------------------------------------------------------------||

Riff 2 :
 E  |----------------------------------||
 B  |----------------------------------||
 G  |----5-----7-----------------------||
 D  |----5-----7-----------------------||
 A  |----3-----5-----------------------||
 E  |----------------------------------||


Riff 3

E  |-------------------------------------------------------------||
B  |-------------------------------------------------------------||
G  |------0--0-----0-----0-----0-----0--------0--------0-------0-||
D  |---------------------------------------3--------3-------3----||
A  |---3--------3-----3-----3-----3-----5--------5-------5-------||
E  |-------------------------------------------------------------||


Riff
Quisiera escribirte rayando el aire
palabras que el viento no te pueda robar

Am    Cm

Riff
'he tocado las estrellas'
me dijiste susurrando
y tenías cicatrices que podían demostrarlo

Am       Cm   Am      Cm
Ven y tráeme síes y noes


F   G    F  G      F   G     F
Nadie lo sabe, no quieren saber
G           F    G    F  G F    G    F     G
que en tu almohada se oye, cansada, la nada

Riff2
Dibújame desnudo con un lápiz de carbón
Riff2   (Podeis intercalar aqui el riff3,ya que en la cancion el riff 2 lo hace una acustica y el 3, una electrica)
y tú me dibujaste vestido de lágrima...

Am       Cm   Am      Cm
Ven y tráeme síes y noes

F   G    F  G      F   G     F
Nadie lo sabe, no quieren saber
G           F    G    F  G     F    G    F  G      Am  Cm
que en tu almohada se oye, cansada, la nada    silbar.
Suggest correction
Give kudos to tab author, rate the tab!
1 2 3 4 5
comments
print report bad tab
guest
You may want to rate the tab now too:
select rating
Wanna post a correction for this tab? Suggest correction