Oops, an error
Loading. Please wait.

Por Tí Chords

20 views 1 this week
no commentswrite comment
1 2 3 4 5
3 more votes to show rating
add to favorites
×
Save as Personal and add changes to this tab that will be seen only by you. Learn more ›
×
You can save this tab as Personal to edit and correct it or add notes. All changes will be seen only by you. Learn more »
save as personal
new!
launch autoscroll
font size
0
reset
transpose
0
reset
display chords
guitar tuner
Autoscroll
slow
fast
+/-
esc
set tempo
stop
Strumming
There is no strumming pattern for this song yet. and get +5 IQ
INTRO
E[-----------------------------------
A[-3-----2---------------------------
D[-----------------------------------
G[---------------2----1-3-5-3-1-0-1--
B[-----1-----0-1---------------------
e[---3-----3-------------------------

C                        G
Por Ti aprendi que los sueños
F                         G
pueden hacerse realidad
C                         G
y que si tocas el suelo siempre
F                          G
hay que volverse a levantar

Am                      G
Tu me enseñaste a volar
F                         G
y a distinguir el blanco del negro
Am                      G
el mundo puede estallar
F                         G
mientras tu estes aqui seras...

CORO
C                        G
Mi sur, mi norte y el final de mis pesadillas
F                         G
y pelearia contra el mar por ti
C                        G
pues en tus ojos conoci el amor
F                        G
serás por siempre mi motor... mi motor

Por ti (por ti)
C                       G
Se que por ti puedo tirar la muralla china
F                        G
y hasta cambiar la luna de lugar (por ti)
C                       G
porque tus besos hacen polvo el dolor
F                       G
serás por siempre mi motor... mi motor

E[-----------------------------------
A[-3-----2---------------------------
D[-----------------------------------
G[---------------2----1-3-5-3-1-0-1--
B[-----1-----0-1---------------------
e[---3-----3-------------------------

C                     G
Por que olvista enseguida
F                      G
si alguna vez te hice llorar
C                     G
y ni 10 000 precipiciso juntos
F                      G
nos podrian separar

Am                   G
Tu me enseñaste a luchar
F                      G
y a conocer la tierra y el cielo
Am                  G
todos me pueden fallar
F                      G
mientras te tenga a ti... seras

CORO (2 veces)

                                       C
E[-----------------------------------
A[-3-----2---------------------------
D[-----------------------------------
G[---------------2----1-3-5-3-1-0-1--
B[-----1-----0-1---------------------
e[---3-----3-------------------------
Suggest correction
Give kudos to tab author, rate the tab!
1 2 3 4 5
comments
print report bad tab
guest
Wanna post a correction for this tab? Suggest correction