Oops, an error
Loading. Please wait.

Tu Foto No Sacaré Tab

26 views 3 this week
no commentswrite comment
1 2 3 4 5
3 more votes to show rating
add to favorites
launch autoscroll
font size
0
reset
how to read this tab
guitar tuner
Autoscroll
slow
fast
+/-
esc
set tempo
stop
Help us to improve Ultimate-Guitar.com Take our survey!
×
Tu Foto No Sacare - Magnolia Y Los No Me Olvides
Intro:

  D           A           G     D         A            G      A
e|2-2-3-5-3-2---------------0-2-2------------10-10-9-7----------7-5------
B|------------5-5-7-8-7-5-3-------7-7-7-8-10-----------10-7-5-3-----7-5-3
G|-----------------------------------------------------------------------
     D             A               G              D
Soledad Me Hace Sentir Lleno Otra Vez, Lleno Otra Vez
                 A        G         A        D
Pero Hoy Ya Decidí Caminare Sin Rumbo A Seguir
                     A                   G                  D
Llevare Jamón Para Comer, Un Libro Pa´ Leer, Leche Para La Sed
                         A                G    A         D
Y También Tu Foto Guardare Pero No La Sacare, No La Sacare

CORO
G      D           G                 D         G
Lejos Iré, No Iré Solo No Te Preocupes La Soledad Me Acompañara
D
Siempre
G         A   Bm        G      A    D
Yo No Me Perderé  Y Tu Foto No Sacaré.

 D           A           G     D         A            G      A
e|2-2-3-5-3-2---------------0-2-2------------10-10-9-7----------7-5------
B|------------5-5-7-8-7-5-3-------7-7-7-8-10-----------10-7-5-3-----7-5-3
G|-----------------------------------------------------------------------

D                         A                  G            D
Se Que Olvide Decirte Las Cosas Que Querías Oír, Querías Oír
                             A              G   A            D
Creo Que Traje Una Pluma También Pues Anotare Y Te Las Enviare
                     A               G             D
Pero No Entiendo Porque Tu Foto Guarde, No La Sacare
                         A                  G      A
Mejor Yo Me Subiré A Un Tren Pues Ya Me Canse, Me Subiré A Un
  D
Tren

G      D           G                 D         G
Lejos Iré, No Iré Solo No Te Preocupes La Soledad Me Acompañara
D
Siempre
G         A   Bm        G      A    D
Yo No Me Perderé  Y Tu Foto No Sacaré.

(Lento)
e|2-2-3-5-3-2---------------0-2-2------------10-10-9-7----------7-5------
B|------------5-5-7-8-7-5-3-------7-7-7-8-10-----------10-7-5-3-----7-5-3
G|-----------------------------------------------------------------------

G      D           G                 D         G
Lejos Iré, No Iré Solo No Te Preocupes La Soledad Me Acompañara
D
Siempre
G         A    D  G         A    D        G        A     Bm
Yo No Me Perderé, Yo No Me Perderé, yeeh! Yo No Me Perderé
     G       A     D
Y Tu Foto No Sacaré.

                                      By: Edmard Strapless
Suggest correction
Give kudos to tab author, rate the tab!
1 2 3 4 5
comments
print report bad tab
guest
You may want to rate the tab now too:
select rating
Wanna post a correction for this tab? Suggest correction