Oops, an error
Loading. Please wait.

A Costa Da Morte Tab

version 1
version 1

Whole song

411 views 1 this week
no commentswrite comment
1 2 3 4 5
3 more votes to show rating
add to favorites
launch autoscroll
font size
0
reset
how to read this tab
guitar tuner
×
Best way to learn
"A Costa Da Morte"
Autoscroll
slow
fast
+/-
esc
set tempo
stop
                          "A COSTA DA MORTE"
                               Mägo de Oz

                               FINISTERRA

  INTRO DEL SOLO: (02:35) Junto con la flauta y el violin!

e|--17-15-14-----------------------------------------------------|
B|-----------17-15-14----14-15-14--------------------------------|
G|--------------------16----------16-14-----12-14-16-14-12-------|
D|---------------------------------------15----------------15~/--|
A|---------------------------------------------------------------|
E|---------------------------------------------------------------|


  SOLO: (02:39)

e|---------7--------7h8-7~--8h10-8-7-------------7--------7h8--7~--------|
B|-/8-8-10---h8-10~------------------10--/8-8-10---h8-10~--------10~-8~--|
G|-----------------------------------------------------------------------|
D|-----------------------------------------------------------------------|
A|-----------------------------------------------------------------------|
E|-----------------------------------------------------------------------|

e|---------7--------7h8-7~--8h10-8-7-------------7--------7h8--7~--------|
B|-/8-8-10---h8-10~------------------10--/8-8-10---h8-10~--------10~-8~--|
G|-----------------------------------------------------------------------|
D|-----------------------------------------------------------------------|
A|-----------------------------------------------------------------------|
E|-----------------------------------------------------------------------|
NOTA:
El "h8" se hace
solo tocando el
dedo... sin la
pua... eschuchen!!!

(02:53)

e|--10-10-10-10-10-10-----------------7-8-7---------7-8-------|
B|--------------------8-8-8-8-8-8--10-------10-8-10-----10-8--|
G|------------------------------------------------------------|
D|------------------------------------------------------------|
A|------------------------------------------------------------|
E|------------------------------------------------------------|

e|--10-10-10-10-10-10-----------------7-7h8-7~--|
B|--------------------8-8-8-8-8-8--10-----------|
G|----------------------------------------------|
D|----------------------------------------------|
A|----------------------------------------------|
E|----------------------------------------------|

  (03:00)

e|--10-10-10-10-10-10-----------------7-8-7---------7-8-------|
B|--------------------8-8-8-8-8-8--10-------10-8-10-----10-8--|
G|------------------------------------------------------------|
D|------------------------------------------------------------|
A|------------------------------------------------------------|
E|------------------------------------------------------------|

e|--10-10-10-10-10-10------------------7.---------------------------------|
B|--------------------8-8-8-8-8-8--10.---10.--8-8-8-8-8-8-8-8-8-8-8-8...--|
G|------------------------------------------------------------------------|
D|------------------------------------------------------------------------|
A|------------------------------------------------------------------------|
E|------------------------------------------------------------------------|

  FIN!!!!!!


   o8  8.
 88  88  8o
o88  88  88
 88  88  88
 88  88  88     º º      oo        o_
 80  88  88    8R88º   8º  º8    8º º8
 88 o88  88  o88  8  o88   88o  88   88
 88   º  88   º8G80o º88oo8E8o º88oo88º
o88       º88oo              8D8
  º  o                         88
  ,ooº8         ,oº88ºo         8Iº
    88                 º8Eoooo88º
    88
    88
   ,88   ,o88o
o8ºº?88  88  88º                ¡We must be over the rainbow!
.º8oo88  oº88ºº
   ººº8    º88oooººººººo    ¡¡¡¡¡¡¡¡ HASTA SIEMPRE CABRONES !!!!!!!!!!
      º8,,.

          .oºo.
        o8º   º8o
      o8ºº     ºº8o
     o88º        º88o
    o88º         º88o  o8ººooooo8ºº
     o8º         º8o        o8º
      o8o       o8o      o8º                       »© mÄg0tâgLE ®«
        ºooooooº      o88oººººººº888º
                     º           º8ºo
        ooooo,                   º8º
      oº     º88o               8ºo
                 º88o           o8º
                     º88ooooooo8º
Suggest correction
Give kudos to tab author, rate the tab!
1 2 3 4 5
comments
print report bad tab
guest
You may want to rate the tab now too:
select rating
Wanna post a correction for this tab? Suggest correction