Oops, an error
Loading. Please wait.

Adiós Dulcinea Tab

version 1
version 1

Whole song

492 views 9 this week
no commentswrite comment
1 2 3 4 5
3 more votes to show rating
add to favorites
launch autoscroll
font size
0
reset
how to read this tab
guitar tuner
×
Best way to learn
"Adiós Dulcinea"
Autoscroll
slow
fast
+/-
esc
set tempo
stop
Hola aqui subiendo esta rola esta muy facil y bien chida me gusta mas
como suena la bataca jajaja pero pues subi lo de la guitarra

Intro
1.------------------------------------
2.---------11-11-9------11-11-9-------
3.-9-11-12---------9-11---------11-9--
4.------------------------------------
5.------------------------------------
6.------------------------------------

1.-9-11-12-11-9-11-9------9-9-----
2.-------------------11-9-----7---
3.------------------------------9-
4.--------------------------------
5.--------------------------------
6.--------------------------------

1.-----------------------------
2.---------11-12-11-9----------
3.-9-11-12------------11-9-11~-
4.-----------------------------
5.-----------------------------
6.-----------------------------

1.---------------------------
2.-11-11-9------11-11-9------
3.---------9-11---------11-9-
4.---------------------------
5.---------------------------
6.---------------------------

1.-9-11-12-11-9-11-9------9-9-----
2.-------------------11-9-----7---
3.------------------------------9-
4.--------------------------------
5.--------------------------------
6.--------------------------------

1.-----------------------------
2.---------11-12-11-9----------
3.-9-11-12------------11-9-11~-
4.-----------------------------
5.-----------------------------
6.-----------------------------

1.-2-----0-----2-----2-----2-
2.-----3-----2-----3---3-----
3.---2-----2-----4-------4---
4.-0-------------------------
5.-------0-----2-------------
6.---------------------------

1.-2-----0-----2-----2-----2-
2.-----3-----2-----3---3-----
3.---2-----2-----4-------4---
4.-0-------------------------
5.-------0-----2-------------
6.---------------------------

1.-2-----0-----2-----2-----2-
2.-----3-----2-----3---3-----
3.---2-----2-----4-------4---
4.-0-------------------------
5.-------0-----2-------------
6.---------------------------

1.-3-----0-----2-----2-----2-
2.-----3-----2-----3---3-----
3.---0-----2-----4-------4---
4.---------------------------
5.-------0-----2-------------
6.-3-------------------------

Verso
He decidido escribirte
1.-2-----0-----2-----2-----2-
2.-----3-----2-----3---3-----
3.---2-----2-----4-------4---
4.-0-------------------------
5.-------0-----2-------------
6.---------------------------

despues de tanto llorar
1.-2-----0-----2-----2-----2-
2.-----3-----2-----3---3-----
3.---2-----2-----4-------4---
4.-0-------------------------
5.-------0-----2-------------
6.---------------------------

Mis lagrimas son hoy estos versos que
1.-2-----0-----2-----2-----2-
2.-----3-----2-----3---3-----
3.---2-----2-----4-------4---
4.-0-------------------------
5.-------0-----2-------------
6.---------------------------

tu ausencia nunca podra borrar.
1.-3-----0-----2-----2-----2-
2.-----3-----2-----3---3-----
3.---0-----2-----4-------4---
4.---------------------------
5.-------0-----2-------------
6.-3-------------------------

Me voy como vine a tu vida
1.-2-----0-----2-----2-----2-
2.-----3-----2-----3---3-----
3.---2-----2-----4-------4---
4.-0-------------------------
5.-------0-----2-------------
6.---------------------------

sin hacer ruido me despido me voy
1.-2-----0-----2-----2-----2-
2.-----3-----2-----3---3-----
3.---2-----2-----4-------4---
4.-0-------------------------
5.-------0-----2-------------
6.---------------------------

pero me cuesta tanto olvidarte mi amor
1.-2-----0-----2-----2-----2-
2.-----3-----2-----3---3-----
3.---2-----2-----4-------4---
4.-0-------------------------
5.-------0-----2-------------
6.---------------------------

me cuesta tanto decirte adios.
1.-3-----0-----2-----2-----2-
2.-----3-----2-----3---3-----
3.---0-----2-----4-------4---
4.---------------------------
5.-------0-----2-------------
6.-3-------------------------

Pre-coro
Hoy he vuelto a entender que
1.-2-----0-----
2.-----3-----2-
3.---2-----2---
4.-0-----------
5.-------0-----
6.-------------

jamas volveran
1.-2-----
2.-----3-
3.---4---
4.-------
5.-2-----
6.-------

aquellos paseos de vuelta al hotel
1.-3-----0-----2-----2-----
2.-----3-----2-----3-----3-
3.---0-----2-----4-----2---
4.-------------------0-----
5.-------0-----2-----------
6.-3-----------------------

en que tu me empujabas para no perder
1.-2-----0-----2-----
2.-----3-----2-----3-
3.---2-----2-----4---
4.-0-----------------
5.-------0-----2-----
6.-------------------

ni un solo instante en hacer el amor.
1.-3-----0-----2-----2-----2-
2.-----3-----2-----3---3-----
3.---0-----2-----4-------4---
4.---------------------------
5.-------0-----2-------------
6.-3-------------------------

Coro
    D5               A5
Dejare de verte crecer
              Bm5
me marcho a vivir
       G5 G5 F#5-G5 F5
donde habita el olvido
      D5        Bm5
he intentare buscar
      G5 G5 F#5-G5
otro camino tu amor
      D5                 A5
cada vez que intento perder
            Bm5
el miedo a caer
       G5 G5 F#5-G5 F5
me tropiezo en mi mismo
   D5      Bm5
y dejo escapar
               G5 G5      A5 A5      Bm5
a quien me a querido y me quedo sin luz.

Verso
El suelo de mi vida se viste
1.-2-----0-----2-----2-----2-
2.-----3-----2-----3---3-----
3.---2-----2-----4-------4---
4.-0-------------------------
5.-------0-----2-------------
6.---------------------------

se abriga con hojas de un adios
1.-2-----0-----2-----2-----2-
2.-----3-----2-----3---3-----
3.---2-----2-----4-------4---
4.-0-------------------------
5.-------0-----2-------------
6.---------------------------

mi destino es amar y despedirme pedir
1.-2-----0-----2-----2-----2-
2.-----3-----2-----3---3-----
3.---2-----2-----4-------4---
4.-0-------------------------
5.-------0-----2-------------
6.---------------------------

permiso para vivir.
1.-3-----0-----2-----2-----2-
2.-----3-----2-----3---3-----
3.---0-----2-----4-------4---
4.---------------------------
5.-------0-----2-------------
6.-3-------------------------

Pre-coro
Te dejaste olvidado
1.-2-----0-----
2.-----3-----2-
3.---2-----2---
4.-0-----------
5.-------0-----
6.-------------

en cada rincon
1.-2-----
2.-----3-
3.---4---
4.-------
5.-2-----
6.-------

de mi alma trocitos de tu corazon
1.-3-----0-----2-----2-----
2.-----3-----2-----3-----3-
3.---0-----2-----4-----2---
4.-------------------0-----
5.-------0-----2-----------
6.-3-----------------------

te dejaste olvidado en mi alma tu olor
1.-2-----0-----2-----
2.-----3-----2-----3-
3.---2-----2-----4---
4.-0-----------------
5.-------0-----2-----
6.-------------------

dormia abrazado a una flor.
1.-3-----0-----2-----2-----2-
2.-----3-----2-----3---3-----
3.---0-----2-----4-------4---
4.---------------------------
5.-------0-----2-------------
6.-3-------------------------

Coro
    D5               A5
Dejare de verte crecer
              Bm5
me marcho a vivir
       G5 G5 F#5-G5 F5
donde habita el olvido
      D5        Bm5
he intentare buscar
      G5 G5 F#5-G5
otro camino tu amor
     D5            A5
y no se si me perdere
            Bm5
o me encontrare
  G5 G5 F#5-G5 F5
me siento tan solo
D5                 Bm5
pero a mi infierno iré
           G5 G5   A5 A5      Bm5
en busca de todo lo que no te di.

Solo (usen lo de el coro)

Pre-coro
Hoy he vuelto a entender que
1.-2-----0-----
2.-----3-----2-
3.---2-----2---
4.-0-----------
5.-------0-----
6.-------------

jamas volveras
1.-2-----
2.-----3-
3.---4---
4.-------
5.-2-----
6.-------

a acariciarme antes de dormir
1.-3-----0-----2-----2-----
2.-----3-----2-----3-----3-
3.---0-----2-----4-----2---
4.-------------------0-----
5.-------0-----2-----------
6.-3-----------------------
y pegada a mi pecho me pides que
1.-2-----0-----2-----
2.-----3-----2-----3-
3.---2-----2-----4---
4.-0-----------------
5.-------0-----2-----
6.-------------------
te abraze y no te deje ir.
1.-2-----0-----2-----
2.-----3-----2-----3-
3.---2-----2-----4---
4.-0-----------------
5.-------0-----2-----
6.-------------------

Coro
    D5               A5
Dejare de verte crecer
            Bm5
me tengo que ir
      G5 G5 F#5-G5 F5
y encontrar mi camino
   D5        Bm5
y nunca olvidare
             G5 G5 F#5-G5
lo que me has querido amor.
    D5               A5
Dejare de verte crecer
              Bm5
me marcho a vivir
       G5 G5 F#5-G5 F5
donde habita el olvido
      D5        Bm5
he intentare buscar
      G5 G5 F#5-G5
otro camino tu amor
      D5                 A5
Cada vez que intento perder
            Bm5
el miedo a caer
       G5 G5 F#5-G5 F5
me tropiezo en mi mismo
   D5      Bm5
y dejo escapar
               G5 G5      A5 A5      Bm5
a quien me a querido y me quedo sin luz.
   D5              A5
Adios mi vida me voy
            Bm5
te dejo marchar
       G5 G5 F#5-G5 F5
vivire en tus recuerdos
   D5         Bm5
jamas te olvidare
          G5 G5 F#5-G5
adios Dulcinea me voy
    D5               A5
y si nos volvemos a ver
           Bm5
solo abrazame
       G5 G5 F#5-G5 F5
sigo siendo aquel niño
      D5        Bm5
con miedo a madurar
         A5                  C5
duermo pegado a tu foto mi amor
                    C5
Adios Dulcinea mi amor...


Esta cancion esta dedica a mis amigas (las demas pues no las
alcanze a poner por que me dio hueva jajaja despues subo
sus nombres jeje)

(F)Nancy(F)
(F)Nayely(F)
(F)Yenni(F)
(F)Jazmin(F)
(F)Karla (anita) jajaja(F)

Y a toda la bola de borrachos con la que me llevo jajaja arriba
el alcohol

(B)Peluso(B)
(B)Gachis(B)
(B)Tivu(B)
(B)Josue(B)

y los demas jajaja
Y recuerden "Beban hasta que su riñon no pueda mas" Papa de
peluso jajaja
P.D. El solo si lo tengo nomas que pues me dio hueva ponerlo
jajaj y el mini solo del final ese ando en eso sacandolo a la
mejor despues lo subo pero sera enotra tablatura.
Suggest correction
Give kudos to tab author, rate the tab!
1 2 3 4 5
comments
print report bad tab
guest
You may want to rate the tab now too:
select rating
Wanna post a correction for this tab? Suggest correction