Oops, an error
Loading. Please wait.

Adiós Dulcinea Tab

version 2
version 2

Whole song

255 views 6 this week
no commentswrite comment
1 2 3 4 5
3 more votes to show rating
add to favorites
×
Save as Personal and add changes to this tab that will be seen only by you. Learn more ›
×
You can save this tab as Personal to edit and correct it or add notes. All changes will be seen only by you. Learn more »
save as personal
new!
launch autoscroll
font size
0
reset
how to read this tab
guitar tuner
Autoscroll
slow
fast
+/-
esc
set tempo
stop
Hola, esta es mi 1º colaboracion,esta tablatura es para los amantes de
las baladas...,la version de guitarra anterior no la entendi,
no sonaba el intro y otras  cosas.(esta si suena perfecto)aqui va:

Intro:

E||-------------------------------------15-17-19-17-15-----
B||------7--9h10-10-7-------10-10----------------------19--
G||----7--------------7-7h9-------9-6-6h7?-----------------
D||--7-----------------------------------------------------
A||--------------------------------------------------------
E||--------------------------------------------------------

------------------------------------------------|
---10-10----------------------------------------|
-7?--------------------11-12-11-9---------------|
---------11-9--9-11-12------------12-11-11h12?--|
------------------------------------------------|
------------------------------------------------|


E||-----------------------------15-17-19-17-15-----
B||--10-10-7-------10-10-----------------------19--
G||----------7-7h9-------9-6h7?--------------------
D||------------------------------------------------
A||------------------------------------------------
E||------------------------------------------------


------------------------------------------------|
---10-10----------------------------------------|
-7?--------------------11-12-11-9---------------|
---------11-9--9-11-12------------12-11-11h12?--|
------------------------------------------------|
------------------------------------------------|


luego sige el piano arpegiando con:

1) D-A-Bm-G-A
2) D-A-Bm-G-A-Bm

-NOTA:Para q el arpegio salga parecido en guitarra basta con hacer algunos
acordes de cejilla como el D-A-Bm-G. el A se puede hacer natural.

Verso1:

 D      A         Bm     D          A         Bm
He decidido escribirte, después de tanto llorar
 D          A              Bm             G           A           Bm
Mis lágrimas son hoy estos versos que tu ausencia nunca podrá borrar
 D            A       Bm          D             A           Bm
Me voy como vine a tu vida, sin hacer ruido me despido, me voy
 D             A         Bm          D     G              A        Bm
Pero me cuesta tanto olvidarte mi amor, me cuesta tanto decirte adiós


Verso2:

       D             A          Bm       A
Hoy he vuelto a entender que jamás volverán
  G        A           Bm         A
aquellos paseos de vuelta al hotel
      D          A          Bm      A
Donde tú me empujabas para no perder
            G             A         Bm
ni un solo instante en hacer el amor.


Coro: (con guitarra distorcionada)

   D5          A5                      Bm5                 G5
Dejare de verte crecer, me marcho a vivir donde habita el olvido
   D5         Bm5        G5
Intentare buscar otro camino, otro amor
     D5                  A5             Bm5                G5
Cada vez que intento perder el miedo a caer me tropiezo en mi mismo
   D5      Bm5               G5           A5         Bm5
Y dejo escapar a quien me ha querido y me quedo sin luz.

Luego:

-Verso1
-Verso2
-Coro (varía en la letra)

Solo:(solo pude sacar la mitad porque Salan es demasiado bkn.

E||---------14-14h15-14---------------------
B||---15-17-------------17-15-14-14h15------
G||------------------------------------16?--
D||-----------------------------------------
A||-----------------------------------------
E||-----------------------------------------

-------14-14h15-14----16/19?-17----------------------|
-15-17-------------17-----------19-17b--15----15-----|
-------------------------------------------16---16?--|
-----------------------------------------------------|
-----------------------------------------------------|
-----------------------------------------------------|

E||---------14-14h15-14------------------------------
B||---15-17-------------17-15-14-12--10--------------
G||-------------------------------------11-9---------
D||------------------------------------------12-11-9-
A||--------------------------------------------------
E||--------------------------------------------------

---------------------9-10-9---------------|
---------------10-12--------12-10-10h12?--|
---------11-12----------------------------|
-9-11-12----------------------------------|
------------------------------------------|
------------------------------------------|

E||------19-21-21h22-21-19---
B||---19------------------22-
G||--------------------------
D||--------------------------   ...  improvisen ...
A||--------------------------
E||--------------------------

Luego:

Guitarra acustica arpegiando en:

D-A-Bm-A-G-A-Bm-A

-Verso2
-Coro(extra largo)

  FIN

Saludos a todo el piño... by P@bl!t0
Suggest correction
Give kudos to tab author, rate the tab!
1 2 3 4 5
comments
print report bad tab
guest
Wanna post a correction for this tab? Suggest correction