Oops, an error
Loading. Please wait.

Brujas Tab

243 views 1 this week
no commentswrite comment
1 2 3 4 5
3 more votes to show rating
add to favorites
launch autoscroll
font size
0
reset
how to read this tab
guitar tuner
Autoscroll
slow
fast
+/-
esc
set tempo
stop
Help us to improve Ultimate-Guitar.com Take our survey!
×
opcional: empiezan cn PM a la 6ta y 5ta
cuerda para marcar los tiempos del bombo


Después de siglos de tanto esperar
se despertaron para regresar
Magia, lujuria y hechizos de amor
Ritos ocultos sombría pasión

E5
sus ojos son estrellas
A5
su piel la oscuridad
G5
el rey de las mentiras
D5
su único amor de verdad

somos las plarias de la santidad
somos la tumba de la realidad
Vestidos negros nos cubren la piel
Nos maquillamos con sangre de ti
E5
La brisa del ocaso
A5
la llama avivara
G5
La hoguera nos calienta
D5
Dulce mortalidad

F5...............PM
Desnudas bailaremos
G5 ..............PM
vestidas de sudor
C5...........PM D5....PM
esperando a que llegue el diablo
D5 ..............PM
y nos llene de amor

e|-------------|  ---------|
B|-------------|  ---------|
G|-------------|x3---------|
D|-------------|  --5--7---|RIff 1
A|--7-5---5-7--|  --3--5---|
E|------7------|  ---------|

e|-------------|  ---------|
B|-------------|  ---------|
G|-------------|x2-----5-7-|RIff 2
D|-------------|  -----3-5-|
A|--7-5---5-7--|  -5-7-----|
E|------7------|  -3-5-----|

E5                  C5       D5
baños de sangre nos lamen la piel
E5                C5        D5
gotas de lagrimas sacian la sed
RIff 1
flores que mueren sombrío jardín
RIff 2
sudando blasfemias ahogamos su fe
E5                    A5
su tumba nuestra cama sacrilegio festín
G5                                 D5
su trono nuestros cuerpos que tortura sin fin
F5..............PM G5..........PM
peganos mas fuerte, peganos señor
C5...........PM D5..........................PM
dulce néctar de sangre fluidos y algo de dolor

G#5                   D#5
ven con nosotras a la oscuridad
G#5               D#5
dulce forma de morir
F#5                B
condenate, siempre estaremos en ti
C#                    D#5
Dios también quiso venir

G5                          D5
ven con nosotras si quieres volar
G5                D5
la luna te enseñara
F5                      A5
y al ritmo de la magia negra vendrás
C5             D5
déjate pervertir seras bruja

seras inmortal

e|-------------|  ---------|
B|-------------|  ---------|
G|-------------|x3---------|
D|-------------|  --5--7---|
A|--7-5---5-7--|  --3--5---|
E|------7------|  ---------|

e|-------------|  ---------|
B|-------------|  ---------|
G|-------------|x2-----5-7-|
D|-------------|  -----3-5-|
A|--7-5---5-7--|  -5-7-----|
E|------7------|  -3-5-----|

Flauta y violin

e|-------------|  ---------|
B|-------------|  ---------|
G|-------------|x3---------|
D|-------------|  --5--7---|
A|--7-5---5-7--|  --3--5---|
E|------7------|  ---------|

e|-------------|  ---------|
B|-------------|  ---------|
G|-------------|x2-----5-7-|
D|-------------|  -----3-5-|
A|--7-5---5-7--|  -5-7-----|
E|------7------|  -3-5-----|

Solo no lo saco es muy complicado pero el trasfondo es el riff 1 Y 2

G#5                   D#5
ven con nosotras a la oscuridad
G#5               D#5
dulce forma de morir
F#5                B
condenate, siempre estaremos en ti
C#                    D#5
Dios también quiso venir

G5                          D5
ven con nosotras si quieres volar
G5                D5
la luna te enseñara
F5                      A5
y al ritmo de la magia negra vendrás
C5             D5
déjate pervertir seras bruja

seras inmortal

e|-------------|  ---------|
B|-------------|  ---------|
G|-------------|x3---------|
D|-------------|  --5--7---|
A|--7-5---5-7--|  --3--5---|
E|------7------|  ---------|

e|-------------|  ---------|
B|-------------|  ---------|
G|-------------|x2-----5-7-|
D|-------------|  -----3-5-|
A|--7-5---5-7--|  -5-7-----|
E|------7------|  -3-5-----|

e|-------------|
B|-------------|
G|-------------| para el final bajan de uno en
D|-------------| uno los traste con el mismo punteo
A|--7-5---5-7--|
E|------7------|
Suggest correction
Give kudos to tab author, rate the tab!
1 2 3 4 5
comments
print report bad tab
guest
You may want to rate the tab now too:
select rating
Wanna post a correction for this tab? Suggest correction