Oops, an error
Loading. Please wait.

Cuanto Cabe En Un Adiós Chords

128 views 1 this week
no commentswrite comment
1 2 3 4 5
3 more votes to show rating
add to favorites
launch autoscroll
font size
0
reset
transpose
0
reset
display chords
guitar tuner
×
Best way to learn
"Cuanto Cabe En Un Adiós"
Autoscroll
slow
fast
+/-
esc
set tempo
stop
En el intro comienzan con la uña rasgando con una sola mano , no
hay necesidad de puntear con la otra

(Rasgueo)*
E||-----------------------------------------------------------------
B||-----------------------------------------------------------------
G||-----------------------------------------------------------------
D||---------4-4-4-4-4-4-4-4-----4-4-4-4-4-4-4-4-----4-4-4-4-4-4-4-4-
A||-22//4 --4-4-4-4-4-4-4-4-----4-4-4-4-4-4-4-4-----4-4-4-4-4-4-4-4-
E||---------2-0-4-5-4-0-2-2-----2-0-4-5-4-0-2-2-----2-0-4-5-4-0-2-2-

----------------------------------------------------------------|
----------------------------------------------------------------|
----------------------------------------------------------------|
-4-4-4-4-4-4-4-4-------4-4-4-4-4-4-4-4---4-4-4-4-4-4-4-4--------|
-4-4-4-4-4-4-4-4-------4-4-4-4-4-4-4-4---4-4-4-4-4-4-4-4--------|
-2-0-4-5-4-0-2-2---/2/-2-0-4-5-4-0-2-2---2-0-4-5-4-0-2-2--------|

Mim(1): mi menor del séptimo traste.


1RA ESTROFA
E                 F#m            G#m
Si supieras cuanto cabe en un adiós,
                A
entre el cielo y el infierno
E            F#m
existe un beso con sabor a ti
G#m                Solm#/Fam#/La
tu mirada esconde tanto dolor


E              F#m            G#m
ya no hay nadie que te pueda ayudar
               A               E
ya no hay nada que me puedas dar
        F#m          G#m     Solm#/Fam#/La
en mi alma hay una coraza hecha de dolor

PRE-CORO
  AE              G#m   F#m       Mi(1)
y entre sus caderas yo perdía la razón
  AE              G#m   F#m       Mi(1)
y ante sus promesas yo perdía mi corazon


CORO
         E
quiero saber si existe
   B
castigo por poner
               A
mi alma a tus pies
                  E
y venderme por un amor

         E
quiero saber si existe
       B
un cielo para idiotas
          C#m
que como yo
                         A     G#m       F#m
saben cuanto cabe en un adioooooooooooohhhhhhhhhsss.


(Rasgueo)*:

2DA ESTROFA
E               F#m               G#m
si supieras lo esconde un beso de amor
            A
lo que pesa una promesa
     E                F#m
firmado en la noche en tu colchón
        G#m          Solm#/Fam#/La
el tiempo nena ese contrato rompió

E             F#m             G#m
ya no hay nada que me puedas robar
              A
ya no hay nada para ti amor
E        F#m      G#m
estoy vacio y sin lagrimas
Solm#/Fam#/La
que llorar

PRE-CORO
A  E            G#m   F#m       Mi(1)
y entre sus caderas yo perdía la razón
A  E            G#m   F#m       Mi(1)
y ante sus promesas yo perdía mi corazon


CORO
         E
quiero saber si existe
   B
castigo por poner
               A
mi alma a tus pies
                  E
y venderme por un amor

         E
quiero saber si existe
       B
un cielo para idiotas
          C#m
que como yo
                         A     G#m       F#m
saben cuanto cabe en un adioooooooohhhhhhhhhsss.

SOLO:

2DA guitarra

----------------------------------------------------------------|
----------------------------------------------------------------|
--------------------9-10----------------------------------------|
-5---4---4---2------9-9--7---7---4---2--------------------------|
-7---7---4---2------7-6--7---7---4---2--------------------------|
-7---7---2---0-----------5---4---2---0--------------------------|


CORO. El ultimo coro se canta acapela.

 Nota: muy pronto el solo con la 1era guitarra cualquier
 duda a  ysildur_pk2@ ...YOVITO XD
Suggest correction
Give kudos to tab author, rate the tab!
1 2 3 4 5
comments
print report bad tab
guest
You may want to rate the tab now too:
select rating
Wanna post a correction for this tab? Suggest correction