Oops, an error
Loading. Please wait.

El Ángel Caído Tab

version 2
version 2

Whole song

Interactive

55 views 3 this week
no commentswrite comment
1 2 3 4 5
3 more votes to show rating
add to favorites
launch autoscroll
font size
0
reset
how to read this tab
guitar tuner
×
Best way to learn
"El ángel Caído"
Autoscroll
slow
fast
+/-
esc
set tempo
stop
Aqui les traigo el solo de El Angel Caido, esta facil y divertido. Disfruten =D

Esta y las demas tabs que subire las dedico a mi buen amigo Lurko que pronto
cumplira años, Felicidades!!! DAHJ.

(2:13) ? Solo de guitarra
E|---------------------------------------------------------------------------
B|---------------------------------------------------------------------------
G|---5-p5---5------------------------------------------------5-7-
D|--------------------7----7-5---------------------------------------5-7-----
A|-----------------------------7-6-5-3-~-3-------3----------/7---------
E|--------------------------------------------5-3-5---5--5---5~--------------
P.M                        ...........
-------------------------------------------------------------------------8-8-
------------------------------8---8--------8-10-10b12b10p8---8-10b12-10~-----
---7b9-b7p5---5-----------5-7-7b9-7b9~--/9-----------------9-----------------
------------7---7p5---5-7----------------------------------------------------
--------------------7--------------------------------------------------------
-----------------------------------------------------------------------------

---10p8----8-----------------------8p5---5-----------------------------------
--------10---10p8---8-10b12-~------8---8p5---5h8p5---------------------8-
------------------9----------------------------7-------7p5h7-5---5-7b9---7b9-
---------------------------------------------------------------7-------------
-----------------------------------------------------------------------------
-----------------------------------------------------------------------------

---------------------------------------------|
-----8---8---8-8-----8-----------------------|
---7b9-7b9-7b9-7~--7b9-7b9-9b7p5---5-7-9-7~--|
---------------------------------7-----------|
---------------------------------------------|
---------------------------------------------|

| ::  § ? N § ? I  :: | - Las mejores tabs de Mägo de Oz =D
Suggest correction
Give kudos to tab author, rate the tab!
1 2 3 4 5
comments
print report bad tab
guest
You may want to rate the tab now too:
select rating
Wanna post a correction for this tab? Suggest correction