Oops, an error
Loading. Please wait.

El Atrapasueños Tab

299 views 3 this week
no commentswrite comment
1 2 3 4 5
3 more votes to show rating
add to favorites
launch autoscroll
font size
0
reset
how to read this tab
guitar tuner
Autoscroll
slow
fast
+/-
esc
set tempo
stop
Help us to improve Ultimate-Guitar.com Take our survey!
×
[ _ [ guitarra ] _ ]

introduccion
-------------------------------------------------
-------------------------------------------------
-------------------------------------------------
-------------------------------------10----------
-7---7-7-7-7-5---5-5-5-5-7---7-7-7-7-8-----10----
-5---5-5-5-5-3---3-3-3-3-5---5-5-5-5-------8-----
     . . . .     . . . .     . . . .            P.M.

antes del verso
------------------------------------------
------------------------------------------
------------------------------------------
------------------------------------------
-7------------------------------7---------
-5xxxxxxxxxxxxxxxxx-3-5-7-8-7\5-5xxxxx-/x- ------------7-9.------------------------------------------
-------------------10p7-10-----------------------------------------------
-------------------------------------------------------------------------
-------------------------------------------------------------------------

----------------10/-/17-15-17-15-17-15-17--------------------------------
-13-12-10-12-13----------------------------------------------------------
-------------------------------------------------------------------------
-------------------------------------------------------------------------
-------------------------------------------------------------------------
-------------------------------------------------------------------------

-interludio de flauta: Am Dm G Am x4

-------------------------------------------------------------------------
-------------------------------------------------------------------------
-------------------------------------------------------------------------
-------------7-----7-----------------------------------------------------
-7-----7-----5-----5-----5-----5-----7-----7-----------------------------
-5-----5-----------------3-----3-----5-----5-----------------------------

-verso especial

-introduccion

fin

-------------------------------------------------------------------------
-------------------------------------------------------------------------
-------------------------------------------------------------------------
------------------------10-----------------------------------------------
-7-------5-------7-------8--10---7\x-------------------------------------
-5-------3-------5-----------8---5\x-------------------------------------


[ _ [ otros instrumentos, transcritos para guitarra ] _ ]

 violin principal
-------------10-12-----------7--8-10-------------10-12-13-12-10----------
-10----10-13--------8-----8----------10----10-13----------------12-13-12-
-------------------------------------------------------------------------
-------------------------------------------------------------------------
-------------------------------------------------------------------------
-------------------------------------------------------------------------

-------------10-12-----------7--8-10-------------10-12/17-15-13-12-------
-10----10-13--------8-----8----------10----10-13-------------------15-13-
-------------------------------------------------------------------------
-------------------------------------------------------------------------
-------------------------------------------------------------------------
-------------------------------------------------------------------------

 violin en primera parte lenta [1:24]
------------5------------------------------5-----------------------------
--5---6-8-----5-----5------------5---6-8-----5-------5~------------------
------------------7-----7-5----------------------7-----------------------
-------------------------------------------------------------------------
-------------------------------------------------------------------------
-------------------------------------------------------------------------

------------5-7---8---7tr---5----8--/12---10-----------------------------
--5---6-8--------------------------------------13---12-------13-13-------
-------------------------------------------------------------------------
-------------------------------------------------------------------------
-------------------------------------------------------------------------
-------------------------------------------------------------------------

 flauta [2:41]
----------12----12------------10----10-----10--10-10-10-12-10------------
-10-12-13------------10-12-13----------------------------------13--12-10-
-------------------------------------------------------------------------
-------------------------------------------------------------------------
-------------------------------------------------------------------------
-------------------------------------------------------------------------

----------12----12------------10----10-----10--10-10-10------------------
-10-12-13------------10-12-13---------------------------13-12-10---10----
-------------------------------------------------------------------------
-------------------------------------------------------------------------
-------------------------------------------------------------------------
-------------------------------------------------------------------------

 violin [3:00]
----------12--12------------10--10------------10--10--12--10-------------
-10-12-13---------10-12-13----------10-12-13-----------------13-12-13----
-------------------------------------------------------------------------
-------------------------------------------------------------------------
-------------------------------------------------------------------------
-------------------------------------------------------------------------

----------12--12------------10--10------------10-12-10----------15-13-12-
-10-12-13---------10-12-13----------10-12-13-----------13-12-13----------
-------------------------------------------------------------------------
-------------------------------------------------------------------------
-------------------------------------------------------------------------
-------------------------------------------------------------------------

------------------
-15-13-12-........
------------------
------------------
------------------
------------------
Suggest correction
Give kudos to tab author, rate the tab!
1 2 3 4 5
comments
print report bad tab
guest
You may want to rate the tab now too:
select rating
Wanna post a correction for this tab? Suggest correction