Oops, an error
Loading. Please wait.

El Bálsamo De Fierabrás Tab

version 2
version 2

Whole song

Interactive

60 views 1 this week
no commentswrite comment
1 2 3 4 5
3 more votes to show rating
add to favorites
launch autoscroll
font size
0
reset
how to read this tab
guitar tuner
Autoscroll
slow
fast
+/-
esc
set tempo
stop
Help us to improve Ultimate-Guitar.com Take our survey!
×
°°°esto es          xesto ya saben
~~vibrar                    x

e|-°°°°°°°°°------1 -°°°°°°°----------------------------------------------
B|----------------1 ------------------------------------------------------
G|¬¬---------------)-----------------------------------------------------
D|-1---------------)-----------------------------------------------------
A|--4-3-1-3-4------ ---------3--------------------------------------------
E|-----------4p1--- --1-3-4--1--------------------------------------------
       4 veces                   (verso)       cuando a tu.    Y el corazo

e|------------------------------------------------------------------------
B|-------4-4-------4-4-----------4-4--------4x----------------------------
G|-------3-3-------3-3-----------3-3--------3x----------------------------
D|-------1-1-------1-1-----------1-1--------1x--3-----------------5-------
A|----------------------------------------------1-----------------3-------
E|-1-4p1-----1-4p1---------1-4p1------1-4p1-------------------------------
  on                                            si tu.            El peso

e|------------------------------------------------------------------------
B|-6-----------------------------------6-----------------------------6--6-
G|-5-----------------------------------5--------------------°°°°°----5--5-
D|-3-5-3----s.h------5-----------------3--5-3---------------555555---3--3-
A|---3-1--1-1-3~~----3-5-3----------------3-1--1-1-3~~-1-33-333333--------
E|---------4-----------3-1--1-3~~1--------------4-------------------------

e|---------------1---------------------------------------------------------
B|---------------1---------------------------------------------------------
G|--------------------------------5----------------------------------------
D|-1----------------1-------------3--1-------------------------------------
A|--4-3-1-3-4--------4-3-1-3-4--------4-3-1-3-4----------------------------
E|-----------4p1--------------4p1--------------4p1-------------------------

Cuando tu cabeza
sientas latir
más que el corazón
Y tus piernas
no reciban estímulos
ni información
Si tus espaldas
no pueden soportar
el peso
De tus hombros al caminar
Sé de un remedio
ue un moro me dio.
Té quita el tedio y, a veces,
también el dolor.
O.K.! Va guay!.
Tómalo es medicina natural
O.K.! Va guay!
Contra el mal humor...
Bálsamo de Fierabrás.
En la noche de los tiempos
se pierde a su creación.
Toda la tierra,
lo sacia la lluvia
y lo seca el sol.
En el lejano Oriente
es tradición.
Y aquí los necios
lo llaman corrupción.
Es un remedio
que un moro me dio.


y con solo esto sacan toda la cancion
facil cencillo y  mas q nada correcto
de viejo juglar.
y esperen mas gilipollas
por q yo y mi talento apenas empieza
adios
Suggest correction
Give kudos to tab author, rate the tab!
1 2 3 4 5
comments
print report bad tab
guest
You may want to rate the tab now too:
select rating
Wanna post a correction for this tab? Suggest correction