Oops, an error
Loading. Please wait.

El Bálsamo De Fierabrás Tab

version 3
version 3

Whole song

Interactive

65 views 1 this week
no commentswrite comment
1 2 3 4 5
3 more votes to show rating
add to favorites
×
Save as Personal and add changes to this tab that will be seen only by you. Learn more ›
×
You can save this tab as Personal to edit and correct it or add notes. All changes will be seen only by you. Learn more »
save as personal
new!
launch autoscroll
font size
0
reset
how to read this tab
guitar tuner
Autoscroll
slow
fast
+/-
esc
set tempo
stop
colaboracion: Cuauhtèmoc Rodrìguez Tapia
disco: La Leyenda de la Mancha
grupo: Mägo de Oz

esta es mi primera tab que mando, espero les guste

*hola güeyes como les  a ido.....
Aquí les pongo una canción que esta chidilla y la saque
Hay masomenos, pero en fin espero que les guste

También les puse los pinches símbolos nomás' pa' ver si chingan (los símbolos)
Si no les sale y me conocen me pueden decir o preguntarme (de preferencia) para
Aclarar todas (o algunas) de las dudas que tengan


||||||||||||||||||||||************simbolos**************|||||||||||||||||||||||||||||
||                                                                                 ||
||  .  - palm muting(pm)    p   pull off            []; nat. harmonic              ||
||  /  - slide in           h   hammer on           * - gargle                     ||
||  \  - slide out           - art. harmonic     \n - tremolo bar down           ||
||  ~  - vibrato            b  - bend               ()- gost note                  ||
||                                                                                 ||
|||||||||||||||||||||||||||||||||||||||||||||||||||||||||||||||||||||||||||||||||||||


Esto es la introduccion de la cancion se rrepite 4 veses

|------------|----|------------------|
|------------|----|------------------|
|*-----------|-9--|------------------|
|*-----------|-9--|------------------|
|--765-------|-7--|------------------|  (la escala la pueden aser con palm muting)
|-----76540--|----|---0-3/(5)--0~----|

Cuando tu cabeza sientas latir más que el corazón

|------|----|------------------|
|------|----|------------------|
|*-----|-9--|------------------|
|*-----|-9--|------------------|x2
|------|-7--|------------------|
|-030--|----|------------------|

Y tus piernas no reciban estímulos ni información

|------|----|------------------|
|------|----|------------------|
|*-----|-9--|------------------|
|*-----|-9--|------------------|x2
|------|-7--|------------------|
|-030--|----|------------------|

Si tus espaldas no pueden soportar

|------------------------------------|
|------------------------------------|
|*-----------------------------------|
|*-7---------------------------------|
|--7---------------------------------|
|--5---------------------------------|


El peso de tus hombros al caminar

|----------------------------------|
|----------------------------------|
|*---------------------------------|
|*-9-------------------------------|
|--9-------------------------------|
|--7-------------------------------|

Se de un remedio

|------------|-----------|------------------|
|------------|-----------|------------------|
|*-9---------|-----------|------------------|
|*-9-9-7-----|-----------|------------------|
|--7-9-7-----|-----------|------------------|
|----7-5-----|-5-5-3-5-7-|------------------|
              (lo que esta arriva (5-5-3-5-7) se toca cuando dese "se de un remedio")

Que un moro me dio


|----------------------------------|
|----------------------------------|
|*---------------------------------|
|*-7-5-2---------------------------|
|--7-5-2---------------------------|
|--5-3-0---------------------------|


Te quita el tedio y abecés también el dolor

|------------|-----------|------------------|
|------------|-----------|------------------|
|*-9---------|-----------|-----------9-9----|
|*-9-9-7-----|-----------|--999999---9-9----|
|--7-9-7-----|-----------|--999999---7-7----|
|----7-5-----|-5-5-3-5-7-|--777777----------|
pm                           .....


?OK va güay?
Tómalo es medicina natural

|------------|----  |------------------|
|------------|----  |------------------|
|*-----------|-9--  |-9----------------|
|*-----------|-9--  |-9-9-7------------|
|--765-------|-7--  |-7-9-7------------|
|-----76540--|----  |---7-5------------|
(la introduccion)

?OK va güay?
Contra el mal humor...

|------------|----  |------------------|
|------------|----  |------------------|
|*-----------|-9--  |-9----------------|
|*-----------|-9--  |-9-9-7------------|
|--765-------|-7--  |-7-9-7------------|
|-----76540--|----  |---7-5------------|

...Bálsamo de fierabrás


|----------------------------------|
|--121212-10101010-999-10101010----|
|*--9-9-9--9-9-9-9-999--9-9-9-9----|
|*---------------------------------|
|----------------------------------|
|----------------------------------|

En la noche de los tiempos se pierde a su creación
Loda la tierra lo sacia la lluvia y lo seca el sol

|------|----|
|------|----|
|*-----|-99-|
|*-----|-99-|
|------|-77-|
|-030--|----|

En el lejano oriente es tradición
Y aquí los nesios lo llaman corrupción

|----------------|------------------|
|----------------|------------------|
|*---------------|------------------|
|*--7------------|--------9---------|
|---7------------|--------9---------|
|---5------------|--------7---------|

Es un remedio

|------------|-----------|------------------|
|------------|-----------|------------------|
|*-9---------|-----------|------------------|
|*-9-9-7-----|-----------|------------------|
|--7-9-7-----|-----------|------------------|
|----7-5-----|-5-5-3-5-7-|------------------|


Que un moro me dio


|----------------------------------|
|----------------------------------|
|*---------------------------------|
|*-7-5-2---------------------------|
|--7-5-2---------------------------|
|--5-3-0---------------------------|


Te quita el tedio y abecés también el dolor

|------------|-----------|------------------|
|------------|-----------|------------------|
|*-9---------|-----------|-----------9-9----|
|*-9-9-7-----|-----------|--999999---9-9----|
|--7-9-7-----|-----------|--999999---7-7----|
|----7-5-----|-5-5-3-5-7-|--777777----------|
pm                           .....


?OK va güay?
Tómalo es medicina natural

|------------|----  |------------------|
|------------|----  |------------------|
|*-----------|-9--  |-9----------------|
|*-----------|-9--  |-9-9-7------------|
|--765-------|-7--  |-7-9-7------------|
|-----76540--|----  |---7-5------------|

?OK va güay?
Contra el mal humor...

|------------|----  |------------------|
|------------|----  |------------------|
|*-----------|-9--  |-9----------------|
|*-----------|-9--  |-9-9-7------------|
|--765-------|-7--  |-7-9-7------------|
|-----76540--|----  |---7-5------------|

*******SOLO********

(Me han de de disculpar pero apenas estoy sacando el solo de esta
Canción, en cuanto lo saque se los mando ò sino alguien puede hacer ese favor "OK")


|------------|-----|------------------|
|------------|-----|------------------|
|*-----------|-----|------------------|
|*-----------|-9---|------------------|
|------------|-9---|------------------|
|--0-3-0-4-0-|-7---|------------------|

esto es el acomañamiento de l solo


Se de un remedio

|------------|-----------|------------------|
|------------|-----------|------------------|
|*-9---------|-----------|------------------|
|*-9-9-7-----|-----------|------------------|
|--7-9-7-----|-----------|------------------|
|----7-5-----|-5-5-3-5-7-|------------------|

Que un moro me dio


|----------------------------------|
|----------------------------------|
|*---------------------------------|
|*-7-5-2---------------------------|
|--7-5-2---------------------------|
|--5-3-0---------------------------|


Te quita el tedio y abecés también el dolor

|------------|-----------|------------------|
|------------|-----------|------------------|
|*-9---------|-----------|-----------9-9----|
|*-9-9-7-----|-----------|--999999---9-9----|
|--7-9-7-----|-----------|--999999---7-7----|
|----7-5-----|-5-5-3-5-7-|--777777----------|
pm                           .....


?OK va güay?
Tómalo es medicina natural

|------------|----  |------------------|
|------------|----  |------------------|
|*-----------|-9--  |-9----------------|
|*-----------|-9--  |-9-9-7------------|
|--765-------|-7--  |-7-9-7------------|
|-----76540--|----  |---7-5------------|

 ?OK va güay?
Contra el mal humor Bálsamo Bálsamo Bálsamo

|------------|----  |------------------|
|------------|----  |------------------|
|*-----------|-9--  |-9----------------|
|*-----------|-9--  |-9-9-7------------|
|--765-------|-7--  |-7-9-7------------|
|-----76540--|----  |---7-5------------|


?OK va güay?
Tómalo es medicina natural

|------------|----  |------------------|
|------------|----  |------------------|
|*-----------|-9--  |-9----------------|
|*-----------|-9--  |-9-9-7------------|
|--765-------|-7--  |-7-9-7------------|
|-----76540--|----  |---7-5------------|

 ?OK va güay?
Contra el mal humor...

|------------|----
|------------|----
|*-----------|-9--
|*-----------|-9--
|--765-------|-7--
|-----76540--|----

Bálsamo fierabrás

|----------------------------------|
|--121212-10101010-999-10101010----|
|*--9-9-9--9-9-9-9-999--9-9-9-9----|
|*---------------------------------|
|----------------------------------|
|----------------------------------|

      FIN

BUENO PUES AQUÍ SE ACABA ESTA CANCIÓN DE MAGO ESPERO QUE LES AYA GUSTADO COMO ME QUEDO....

........ PUES ME VOY A PRESENTAR, YO SOY CUAUHTÈMOC RODRÍGUEZ TAPIA "CUAU" SOY MEXICANO!!!
TENGO 16 AÑOS Y LLEVO 2 TOCANDO LA GUITARRA, PERO ESO NO SIGNIFICA QUE NO SEPA, PORQUE ES LO
QUE AGO TODO EL PINCHÉ DIA (APARTE DE IR A LA PUTA ESCUELA) Y TAMBIÉN ENSAYO CON MI GRUPO
DE ROCK "ELFO" INTEGRANTES: BENJA, RAÚL, JUAN, PATRICIO-(JORGE) Y "CUAU". SI QUIEREN LUEGO QUE
SEAMOS FAMOSOS Y ESCUCHEN LAS CANCIONES LES PUEDO MANDAR LAS TABLATURAS PARA QUE SEAN MAS CHINGONES

CUANDO ESCRIBÍ ESTO ERA 2 DE MAYO DEL 2004
                                                      GRACIAS*
Suggest correction
Give kudos to tab author, rate the tab!
1 2 3 4 5
comments
print report bad tab
guest
Wanna post a correction for this tab? Suggest correction