Oops, an error
Loading. Please wait.

El Espíritu Del Bosque Tab

version 1
version 1

Whole song

Interactive

116 views 1 this week
no commentswrite comment
1 2 3 4 5
3 more votes to show rating
add to favorites
launch autoscroll
font size
0
reset
how to read this tab
guitar tuner
×
Best way to learn
"El Espíritu Del Bosque"
Autoscroll
slow
fast
+/-
esc
set tempo
stop
ESTA ES MI PRIMER TRANSCRIPCION ANALIZENLA Y CALIFIQUENLA.

Intro.
e|-----------------|---------------|-----------------
B|---5-5b8-7-5-----|---------------|-----------------
G|-4-----------7-4-|-4-4---4-5-7-4-|-4-5-----5-4-----
D|-----------------|-----7---------|-----7-7-----5-2-
A|-----------------|---------------|-----------------
E|-----------------|---------------|-----------------

e|------------------
B|------------------
G|-4-5-4------------
D|-------7-5-2------
A|------------------
E|------------------

Em     G       C      Em
Soy la magia, soy la luz,

       C              Am
un instante de eternidad

    C     Am          G    E
la puerta abierta al más allá

     C     G     B
si duermes me verás.

Em                      D
Si haz llegado hasta aquí

 C             D
cuidate de morir

      C       Em
sin antes dejar

             G
terminados todos tus sueños

   C                D
la vida es para luchar.


La última estrofa se repite y
el final de la flauta y el violín
se puede hacer igual que el intro.
Suggest correction
Give kudos to tab author, rate the tab!
1 2 3 4 5
comments
print report bad tab
guest
You may want to rate the tab now too:
select rating
Wanna post a correction for this tab? Suggest correction