Oops, an error
Loading. Please wait.

El Fin Del Camino Chords

version 1
version 1

Whole song

Interactive

126 views 1 this week
no commentswrite comment
1 2 3 4 5
3 more votes to show rating
add to favorites
launch autoscroll
font size
0
reset
transpose
0
reset
simplify chords
display chords
guitar tuner
×
Best way to learn
"El Fin Del Camino"
Autoscroll
slow
fast
+/-
esc
set tempo
stop
EL FIN DEL CAMINO (Mägo de Oz)

2)-----2_3_2------1--------3----
3)-----2_3_2----0---0----0---0--
4)-----2_3_2--------------------
5)-0-0--------3-----------------
6)---------------------3--------(4x)

2)--5-5-------5-------------------------|-------5-------7-6-5---5---7-6-5---7-6-5----------
3)------5-6-7---7-6-5--6-7-6-5-6-5------|-5-6-7---5-6-7-------7-----------7-------7-6-5----
4)---------------------------------7-7--|-----------------------------------------------7--

1)------------------------|--------------------|------------------------|------------------5--|
2)-----5-5---5------------|-----5-5---5--------|-----5-5---5------------|------5-7-5-6-5-7----|
3)-5-7-----7---7-6-5-6-5--|-5-7-----7---7-6-5--|-5-7-----7---7-6-5-6-5--|--5-7----------------|

(Arpegio entero) LA

 
A                 
Donde la lluvia nace
C   G    A
y la luna flirtea, 
A                    C
con mi mala estrella,
G                       A        1)--3-2- 
aún sigo pensando en ti.


A           C
Quién me vende un alma 
G                  A
y me presta esperanza
A                           
pues es el fin del camino
C     G  A
y no sé a dónde ir
C   G       A
y no sé a dónde ir
A  C  G
si no es sin ti. 
Riff:
2)-5-5-6-5-7-5-------------5-5-7-5-6-5---------5------|--------------|
3)-------------7-6-5-------------------7-5-5-7--------|--------------|
4)-------------------7---------------------------(4x)-|-SUBE UN TONO-| (2x)

 
A        C
Oigo que lloras nena
G                  A
y no te puedo abrazar
no dejes que entre estas maderas
mi palabra puedan enterrar 

Mientras oigo los últimos rezos
me llevo guardados tus besos
y que me quiten ésta jodida cruz
y en su lugar pongan tus pechos 

Quién me vende un alma 
y me presta esperanza
pues es el fin del camino
y no sé a dónde ir   [2x]

(RIFF)

Más amargo que la muerte
es no poder volverte a ver
yo no he elegido perderte
hay un vacío que ha violado mi fé 

Padre, ¿por qué me has abandonado?
¿por qué siempre haces tu voluntad?
es tan cómodo el haberme enviado
y dirigir desde tu pedestal 

(Estribillo X2) 

A5, B5, C5, A5, G5
A5, C5, G5

5)-----------------5-----
6)-5-5-5-5-5-5-6-8---8-5-
Espíritu santus ora pronobis
Espíritu santus ora pronobis 

La lluvia ácida cubría Madrid
y al director de la fábrica se le oye reír
se masturba la muerte en Sarajevo
y sodomiza a un militar con un fajo de dinero 

Espíritu santus ora pronobis
Espíritu santus ora pronobis 

Dos terroristas han sido absueltos
y por 'pillar' en Marruecos en el 'trullo' hay cientos
eso sí, tenemos la patria, la bandera, toros, iglesia
y furbo en la primera

G5, G5, A5
B5, B5, G5
C5, C5, A5

(SOLO)

(RIFF)

Más amargo que la muerte
es no poder volverte a ver
yo no he elegido perderte
hay un vacío que ha violado mi fé 

Padre, ¿por qué me has abandonado?
¿por qué siempre haces tu voluntad?
es tan cómodo el haberme enviado
y dirigir desde tu pedestal 

(Estribillo X2) 

A5, B5, C5, A5, G5
A5, C5, G5

(RIFF)
Suggest correction
Give kudos to tab author, rate the tab!
1 2 3 4 5
comments
print report bad tab
guest
You may want to rate the tab now too:
select rating
Wanna post a correction for this tab? Suggest correction