Oops, an error
Loading. Please wait.

El Fin Del Camino Tab

version 4
version 4

Whole song

Interactive

31 views 1 this week
no commentswrite comment
1 2 3 4 5
3 more votes to show rating
add to favorites
launch autoscroll
font size
0
reset
how to read this tab
guitar tuner
Autoscroll
slow
fast
+/-
esc
set tempo
stop
Help us to improve Ultimate-Guitar.com Take our survey!
×
INTRO  00:00
e------------------------------------------------------------
--------2(4)2 ~----------------------------------------------
-----2--------------------0-------------0--------------------
--0--------------------2-------------2-----2-----------------
------------------0-3-----------0-2--------------------------
-------------------------------------------------------------


e------------------------------------------------------------
--------2(4)4h5h4--------------------------------------------
-----2---------------------0--------------0------------------
--0---------------------2--------------2-----2---------------
-------------------0-3------------0-2------------------------
-------------------------------------------------------------


e------------------------------------------------------------
--------2(4)2 ~----------------------------------------------
-----2--------------------0-------------0--------------------
--0--------------------2-------------2-----2-----------------
------------------0-3-----------0-2--------------------------
-------------------------------------------------------------


e------------------------------------------------------------
--------2(4)4h5h4--------------------------------------------
-----2---------------------0--------------0------------------
--0---------------------2--------------2-----2---------------
-------------------0-3------------0-2------------------------
-------------------------------------------------------------


de inmediato después del intro va esto con
lo anterior de fondo (0:22)

-12~-12~-------12-10------------------------------
------------13-------13-12-10---------------------
---------14-------------------12~-10-9-10-9-------
--------------------------------------------------
--------------------------------------------12-12-
--------------------------------------------------

-------------12-12-------12-15-13-12-10-12~--
----------------------13---------------------
----------14-------14------------------------
-------14------------------------------------
-12-15---------------------------------------
---------------------------------------------

-15----------13-----------------------
----13----13----12----12-13-12-10~----
-------12----------10-----------------
--------------------------------------
--------------------------------------
--------------------------------------

--------------------------------
--------------------------------
-------9------------------------
-10-12---12-10-12-10-9-10-9-----
----------------------------12--
--------------------------------

---------------------------
---------------------------
-------9-------------------
-10-12---12-10-12-10-9-----
-----------------------12--
---------------------------

--------------------------------
--------------------------------
-------9------------------------
-10-12---12-10-12-10-9-10-9-----
----------------------------12--
--------------------------------


----------------------------
----------------------------
-------9--------12-9-12-----
-10-12---12-10-----------7--
-------------------------7--
-------------------------5--
Suggest correction
Give kudos to tab author, rate the tab!
1 2 3 4 5
comments
print report bad tab
guest
You may want to rate the tab now too:
select rating
Wanna post a correction for this tab? Suggest correction