Oops, an error
Loading. Please wait.

El Flautista Chords

80 views 3 this week
no commentswrite comment
1 2 3 4 5
3 more votes to show rating
add to favorites
launch autoscroll
font size
0
reset
transpose
0
reset
display chords
guitar tuner
×
Best way to learn
"El Flautista"
Autoscroll
slow
fast
+/-
esc
set tempo
stop
Aqui esta el acompañamiento de la cancion...
Como ya sacaron el solo... envio este nada mas...
Voten ps...


Empieza con guitarra limpia...


A#              G#
1|-6------8--------4-------6------|
2|---6------6--------4-------4----|
3|-----7------7--------5-------5--|
4|--------------------------------|
5|--------------------------------|
6|-6------6--------4-------4------|(X4)

    A# F G#
1|---6---1-4---|
2|---6---1-4---|
3|---7---2-5---|
4|---8---3-6---|
5|---8---3-6---|
6|---6---1-4---|(X2)

         A#             G#
1|---6-6-6-6-6-6-6---4-4-4-4-4-4-4---|
2|---6-6-6-6-6-6-6---4-4-4-4-4-4-4---|
3|---7-7-7-7-7-7-7---5-5-5-5-5-5-5---|
4|---8-8-8-8-8-8-8---6-6-6-6-6-6-6---|
5|---8-8-8-8-8-8-8---6-6-6-6-6-6-6---|
6|---6-6-6-6-6-6-6---4-4-4-4-4-4-4---|(X4)

    Fm
1|---1---|
2|---1---|
3|---1---|
4|---3---|
5|---3---|
6|---1---|(X2)

         A#             G#
1|---6-6-6-6-6-6-6---4-4-4-4-4-4-4---|
2|---6-6-6-6-6-6-6---4-4-4-4-4-4-4---|
3|---7-7-7-7-7-7-7---5-5-5-5-5-5-5---|
4|---8-8-8-8-8-8-8---6-6-6-6-6-6-6---|
5|---8-8-8-8-8-8-8---6-6-6-6-6-6-6---|
6|---6-6-6-6-6-6-6---4-4-4-4-4-4-4---|(X4)

    Cm
1|---3---|
2|---4---|
3|---5---|
4|---5---|
5|---3---|
6|-------|(X2)

    Am
1|---5---|
2|---5---|
3|---5---|
4|---7---|
5|---7---|
6|---5---|(X2)

    F Em Dm      Em
1|---1---0-1----0-0-0-0-0-0-0-0-0--|
2|---1---0-3----0-0-0-0-0-0-0-0-0--|
3|---2---0-2----0-0-0-0-0-0-0-0-0--|
4|---3---2-0----2-2-2-2-2-2-2-2-2--|
5|---3---2------2-2-2-2-2-2-2-2-2--|
6|---1---0------0-0-0-0-0-0-0-0-0--|

1|----------------------------|----------------------------|
2|----------------------------|----------------------------|
3|----------------------------|----------------------------|
4|----------------------------|----------------------------|
5|-5---5-5---5-5---5-5---8-7--|-5---5-5---5-5---5-5---8-7--|
6|-3---3-3---3-3---3-3---6-5--|-3---3-3---3-3---3-3---6-5--|
       ------p.m------              ------p.m------

1|----------------------------|
2|----------------------------|
3|----------------------------|
4|---8---5---7-7-7-7-7-7-7-7--|
5|---6---3---5-5-5-5-5-5-5-5--|
6|----------------------------|(X2)
             ------p.m-------

      El flautista llego, por el horizonte
1|-------------------------------------------|
2|-------------------------------------------|
3|-------------------------5---------7-------|
4|-------------------8-----3---------5-------|
5|-5---------------8-6-----------------------|
6|-3---------------6-------------------------|

   Dibujando su figura en el sol del poniente
1|---------------------------------------------|
2|---------------------------------------------|
3|---------------------------------------------|
4|----------------8----------5---------7-------|
5|------5-------8-6----------3---------5-------|
6|------3-------6------------------------------|

   Solo os pedira un poco de amistad
   Y a cambio limpiara de ratas tu ciudad
1|------------------------------------------------------|
2|------------------------------------------------------|
3|------------------------------------------------------|
4|-----------------8-------8----5-------5----7-------7--|
5|-5-------5-----8-6-6-6-6-6----3-3-3-3-3----5-5-5-5-5--|
6|-3-3-3-3-3-----6--------------------------------------|(X2)
     -p.m-           -p.m-        -p.m-        -p.m-

1|----------------------------|----------------------------|
2|----------------------------|----------------------------|
3|----------------------------|----------------------------|
4|----------------------------|----------------------------|
5|-5---5-5---5-5---5-5---8-7--|-5---5-5---5-5---5-5---8-7--|
6|-3---3-3---3-3---3-3---6-5--|-3---3-3---3-3---3-3---6-5--|
       ------p.m------              ------p.m------

1|----------------------------|
2|----------------------------|
3|----------------------------|
4|---8---5---7-7-7-7-7-7-7-7--|
5|---6---3---5-5-5-5-5-5-5-5--|
6|----------------------------|(X2)
             ------p.m-------

   Cruzaremos los rios, lagos y montañas
   Y hallaremos un valle sin humo y sin ratas
1|------------------------------------------------------|
2|------------------------------------------------------|
3|------------------------------------------------------|
4|-----------------8-------8----5-------5----7-------7--|
5|-5-------5-----8-6-6-6-6-6----3-3-3-3-3----5-5-5-5-5--|
6|-3-3-3-3-3-----6--------------------------------------|(X2)
     -p.m-           -p.m-        -p.m-        -p.m-


     El es el flautista de los cuentos de tu infancia
1|-------------------------------------------------------|
2|-------------------------------------------------------|
3|-------------------------------------------------------|
4|----------------8-------------5--------------7---------|
5|---5--------8---6-------------3--------------5---------|
6|---3--------6------------------------------------------|

     Matador de dragones gigantes y conquistador de damas
1|----------------------------------------------------------|
2|----------------------------------------------------------|
3|----------------------------------------------------------|
4|------------------8-------------5----------7--------------|
5|-------5--------8-6-------------3----------5--------------|
6|-------3--------6-----------------------------------------|

1|----------------------------|----------------------------|
2|----------------------------|----------------------------|
3|----------------------------|----------------------------|
4|----------------------------|----------------------------|
5|-5---5-5---5-5---5-5---8-7--|-5---5-5---5-5---5-5---8-7--|
6|-3---3-3---3-3---3-3---6-5--|-3---3-3---3-3---3-3---6-5--|
       ------p.m------              ------p.m------

1|----------------------------|
2|----------------------------|
3|----------------------------|
4|---8---5---7-7-7-7-7-7-7-7--|
5|---6---3---5-5-5-5-5-5-5-5--|
6|----------------------------|(X2)
             ------p.m-------

  Acompañamiento del solo:
1|----------------------------|----------------------------|
2|----------------------------|----------------------------|
3|----------------------------|----------------------------|
4|----------------------------|----------------------------|
5|-5---5-5---5-5---5-5---8-7--|-5---5-5---5-5---5-5---8-7--|
6|-3---3-3---3-3---3-3---6-5--|-3---3-3---3-3---3-3---6-5--|
       ------p.m------              ------p.m------

1|----------------------------|
2|----------------------------|
3|----------------------------|
4|---8---5---7-7-7-7-7-7-7-7--|
5|---6---3---5-5-5-5-5-5-5-5--|
6|----------------------------|
             ------p.m-------

1|---------------------------------------|
2|---------------------------------------|
3|---------------------------------------|
4|------------------------8-----5-----7--|
5|---5----8-7-5----8-7----6-----3-----5--|
6|---3----6-5-3----6-5-------------------|(X3)

  Sube un tono:
1|-----------------------------|-----------------------------|
2|-----------------------------|-----------------------------|
3|-----------------------------|-----------------------------|
4|-----------------------------|-----------------------------|
5|-7---7-7---7-7---7-7---10-9--|-7---7-7---7-7---7-7---10-9--|
6|-5---5-5---5-5---5-5----8-7--|-5---5-5---5-5---5-5----8-7--|
       ------p.m------               ------p.m-------

1|---------------------------|
2|---------------------------|
3|---------------------------|
4|---10---7---9-9-9-9-9-9-9--|
5|----8---5---7-7-7-7-7-7-7--|
6|---------------------------|(X2)

1|-------|-----------|-------|
2|-------|-----------|-------|
3|-------|-----------|-------|
4|-------|-----------|-------|
5|---7---|---7-X-7---|---7---|
6|---5---|---5-X-5---|---5---|
Suggest correction
Give kudos to tab author, rate the tab!
1 2 3 4 5
comments
print report bad tab
guest
You may want to rate the tab now too:
select rating
Wanna post a correction for this tab? Suggest correction