Oops, an error
Loading. Please wait.

El Príncipe De La Dulce Pena (Parte Iv) Tab

version 2
version 2

Whole song

18 views 1 this week
no commentswrite comment
1 2 3 4 5
3 more votes to show rating
add to favorites
launch autoscroll
font size
0
reset
how to read this tab
guitar tuner
Autoscroll
slow
fast
+/-
esc
set tempo
stop
Help us to improve Ultimate-Guitar.com Take our survey!
×
bueno este es el solo del principe de la dulce pena IV de gaia III
de mi punto de vista esta bien hasta luego cabrones!!!!


1|---------------------17-|-----------------------------|
2|-17b--15----15--17b-----|-17br--15----15-17-17br--17b-|
3|---------16-------------|----------16-----------------|
4|------------------------|-----------------------------|
5|------------------------|-----------------------------|
6|------------------------|-----------------------------|

1|---------------------------------|--------------------------------|
2|-17b-17-15-----------------------|----------------15-------15-----|
3|-----------16--16-14-------------|----------14-16----14-16----16--|
4|---------------------17-14-------|----14-16-----------------------|
5|---------------------------17-14-|-17-----------------------------|
6|---------------------------------|--------------------------------|

1|----------17----15----14-L-|---14-15-14-15-14-15-14-12-------|
2|----15---------------------|---------------------------------|
3|-14----14----14----14------|---------------------------------|
4|---------------------------|---------------------------------|
5|---------------------------|---------------------------------|
6|---------------------------|---------------------------------|

1|-17-15-14----15-14---------------------------------------------|
2|----------17-------17-15-14------------------------------------|
3|-----------------------------16-14-12--------------------------|
4|--------------------------------------16-14-12-----------------|
5|-----------------------------------------------16-14-12--------|
6|---------------------------------------------------------15-14-|

1|----------------------------------------19vvv-(19v)-(19v)-(19v)-|
2|------------------------------------15--------------------------|
3|--------------------------14-16-18------------------------------|
4|-----------------14-16-17---------------------------------------|
5|--------14-16-17------------------------------------------------|
6|-15-17----------------------------------------------------------|


espero que les sirva
Suggest correction
Give kudos to tab author, rate the tab!
1 2 3 4 5
comments
print report bad tab
guest
You may want to rate the tab now too:
select rating
Wanna post a correction for this tab? Suggest correction