Oops, an error
Loading. Please wait.

El Príncipe De La Dulce Pena (Parte Iv) Tab

version 3
version 3

Whole song

64 views 1 this week
no commentswrite comment
1 2 3 4 5
3 more votes to show rating
add to favorites
launch autoscroll
font size
0
reset
how to read this tab
guitar tuner
×
Best way to learn
"El Príncipe De La Dulce Pena (parte IV)"
Autoscroll
slow
fast
+/-
esc
set tempo
stop
hola!! cabrones!!
aki lez dejo una de mis favoritas de mago, bno creo que esta bien!
califiquenla!

INTRO:

Teclado: (sin distorcion)
e|-----5-------5---|----5-------5---|
B|---7---7---7---7-|--7---7---7---7-|
G|-7-------7-------|7-------7-------|
D|-----------------|----------------|
A|-----------------|----------------|
E|-----------------|----------------|

e|-----5-------5---|-----5-------5---|
B|---7---7---7---7-|---7---7---7---7-|
G|-6-------6-------|-6-------6-------|
D|-----------------|-----------------|
A|-----------------|-----------------|
E|-----------------|-----------------|

Guitarra Carlitos: entra la distorcion
e|---2-5-2------2-5-2------2-5-2------2-5-2---|
B|-3-------3--3-------3--2-------2--2-------2-|
G|--------------------------------------------|
D|--------------------------------------------|  X2
A|--------------------------------------------|
E|--------------------------------------------|

e|-2--0---0-----------|
B|------3----3--2-----|
G|--------------------|
D|--------------------|
A|--------------------|
E|--------------------|

VERSO: (Carlos Escobedo)
Ven, recuestate en mi soledad
la amrgurate acariciara
Ven y dale otra oportunidad
a la fria oscuridad.

PRE-CORO
e|-------|-------|-------|-------|
B|-------|-------|-------|-------|
G|-4-----|--2----|-4-----|-------|
D|-4-----|--2----|-4-----|-2-----|
A|-2-----|--0----|-2-----|-2-----|
E|-------|-------|-------|-0-----|
  Siniestra..              y en una lapida..

e|---3---------5-------------------------|
B|-----3---------5-----------------------|
G|-------4---------7---7-----------------|
D|-5---------7---------7-----------------|
A|-5---------7---------5-----2-2-2-2---2-|
E|-3---------5---------------0-0-0-0---0-|
           clavo mis..      hoy tengo sed...

CORO:
e|------------------------|
B|------------------------|
G|--------7-------5-------|
D|-2------7-------5-------|
A|-2------5-------3-------|
E|-0----------------------|
Que el miedo bañe tu mirada

e|------------------------|
B|------------------------|
G|--------7-------5-------|
D|-2------7-------5-------|
A|-2------5-------3-------|
E|-0----------------------|
que el viento gima por los dos

e|---------------------------------------------|
B|---------------------------------------------|
G|-------7-----4-----------------5-----7-------|
D|-5-----7-----4-----2-----5-----5-----7----2--|
A|-5-----5-----2-----2-----5-----3-----5----2--|
E|-3-----------------0-----3----------------0--|
y la sangre caera...                        fin del coro

e|-5-------8-6-5-6--5-----5----------|
B|---6---6------------6-----8-6-5----|
G|-----5----------------5---------5--|
D|-----------------------------------|
A|-----------------------------------|
E|-----------------------------------|
                                            x2
e|-5-------8-6-5-6--5--6-5-----|
B|---6---6------------------8--|
G|-----5-----------------------|
D|-----------------------------|
A|-----------------------------|
e|-----------------------------|

VERSO 2: (Carlos Escobedo)
Camposanto, lugubre jardin
cruces goticas alrededor
tumba abierta, dulce es el olor
embriagate del festin.

PRE-CORO
e|-------|-------|-------|-------|
B|-------|-------|-------|-------|
G|-4-----|--2----|-4-----|-------|
D|-4-----|--2----|-4-----|-2-----|
A|-2-----|--0----|-2-----|-2-----|
E|-------|-------|-------|-0-----|
  Llora la luna...         llora tristezas..

e|---3---------5-------------------------|
B|-----3---------5-----------------------|
G|-------4---------7---7-----------------|
D|-5---------7---------7-----------------|
A|-5---------7---------5-----2-2-2-2---2-|
E|-3---------5---------------0-0-0-0---0-|
           cuerpo sin..      hazme el amor.

CORO:
e|------------------------|
B|------------------------|
G|--------7-------5-------|
D|-2------7-------5-------|
A|-2------5-------3-------|
E|-0----------------------|
Que el miedo bañe tu mirada

e|------------------------|
B|------------------------|
G|--------7-------5-------|
D|-2------7-------5-------|
A|-2------5-------3-------|
E|-0----------------------|
que el viento gima por los dos

e|---------------------------------------------|
B|---------------------------------------------|
G|-------7-----4-----------------5-----7-------|
D|-5-----7-----4-----2-----5-----5-----7----2--|
A|-5-----5-----2-----2-----5-----3-----5----2--|
E|-3-----------------0-----3----------------0--|
y la sangre caera...                        fin del coro

e|-5-------8-6-5-6--5-----5----------|
B|---6---6------------6-----8-6-5----|
G|-----5----------------5---------5--|
D|-----------------------------------|
A|-----------------------------------|
E|-----------------------------------|

e|-5-------8-6-5-6--5--6-5-----|
B|---6---6------------------8--|
G|-----5-----------------------|
D|-----------------------------|
A|-----------------------------|
e|-----------------------------|

SOLO:
e|-------------------17----------------------------------------
B|-17f--15----15-17f-----17f-15----15-17-17f-17f-17f-17-15-----
G|---------16-------------------16-------------------------16--
D|-------------------------------------------------------------
A|-------------------------------------------------------------
E|-------------------------------------------------------------

e|--------------------------------------------------
B|----------------------------------15-------15-----
G|-16-14----------------------14-16----14-16----16--
D|-------16-14----------14-16-----------------------
A|-------------17-14-17-----------------------------
E|--------------------------------------------------

e|----------17----15----14---14-15-14-15-14-15-12---
B|----15--------------------------------------------
G|-14----14----14----14-----------------------------
D|--------------------------------------------------
A|--------------------------------------------------
E|--------------------------------------------------

e|-17-15-14----15-14---------------------------------------------|
B|----------17-------17-15-14------------------------------------|
G|-----------------------------16-14-12--------------------------|
D|--------------------------------------16-14-12-----------------|
A|-----------------------------------------------16-14-12--------|
E|---------------------------------------------------------15-14-|

e|----------------------------------------19¬¬¬¬¬¬¬----|
B|------------------------------------15---------------|
G|--------------------------14-16-18-------------------|
D|-----------------14-16-17----------------------------|
A|--------14-16-17-------------------------------------|
E|-15-17-----------------------------------------------|

VERSO: Paty Tapia
Que el mal me haga hoy su esclava
la muerte me haga estremecer.

CORO:
e|------------------------|
B|------------------------|
G|--------7-------5-------|
D|-2------7-------5-------|
A|-2------5-------3-------|
E|-0----------------------|
Que el miedo bañe tu mirada

e|------------------------|
B|------------------------|
G|--------7-------5-------|
D|-2------7-------5-------|
A|-2------5-------3-------|
E|-0----------------------|
que el viento gima por los dos

e|---------------------------------------------|
B|---------------------------------------------|
G|-------7-----4-----------------5-----7-------|
D|-5-----7-----4-----2-----5-----5-----7----2--|
A|-5-----5-----2-----2-----5-----3-----5----2--|
E|-3-----------------0-----3----------------0--|
y la sangre caera...                        fin del coro

e|---2-5-2------2-5-2------2-5-2------2-5-2---|
B|-3-------3--3-------3--2-------2--2-------2-|
G|--------------------------------------------|
D|--------------------------------------------|
A|--------------------------------------------|
E|--------------------------------------------|

(Esa parte se acompaña con esta otra)

e|-----------------------|
B|-----------------------|
G|-9-------7-------9-----|
D|-9-------7-------9-----|
A|-7-------5-------7-----|
E|-----------------------|

Ven, recuestate en mi
la amargura vendra
probaras el sabor
de la muerte al besar.

Decadencia, amargura
depresivo amor.

Ven y bebe de mi
moriras junto a mi
y esta tumba sera
nuestro nicho de amor.

Luna llena, luna muerta
depresivo amor.


bueno pues esa es mi transcripcion de EL PRINCIPE DE LA DULCE PENA IV
espero y les sirva

VIVA MAGO!!! Cabrones!!!
Suggest correction
Give kudos to tab author, rate the tab!
1 2 3 4 5
comments
print report bad tab
guest
You may want to rate the tab now too:
select rating
Wanna post a correction for this tab? Suggest correction