Oops, an error
Loading. Please wait.

El Rincón De Los Sentidos tab

version 2
version 2

Whole song

Interactive

62 views 1 this week
no commentswrite comment
1 2 3 4 5
3 more votes to show rating
add to favorites
×
Save as Personal and add changes to this tab that will be seen only by you. Learn more ›
×
You can save this tab as Personal to edit and correct it or add notes. All changes will be seen only by you. Learn more »
launch autoscroll
font size
0
reset
how to read this tab
guitar tuner
edit
Autoscroll
slow
fast
+/-
esc
set tempo
stop
hola, nunca pense poner en una transcripcion las molestas
rayitas pero bueno,todo sea pa que le entiendan mejor a la
cancion.


INTRO:
e|---------------------------------------
B|---------------------------------------
G|---------------------------------------
D|---------------------------------------
A|--7-7-7-7-7-7-5-7-----------------2-----
E|------------------7-5-5-5-5-3-5-3---3-

------------------------------------------
------------------------------------------
------------------------------------------
-------------7-9--------------------------
-7-7-7-7-7-7-----7-10-9-10-9-10-9-10-9-9--
------------------------------------------


E5                        D5
Hace algún tiempo que yo naufragué
 A5                  B5     G5
entre la playa de su juventud
  E5                 D5
a la deriva se me hundió un amor
     G5       E5 G5 A5
y mi vida se encalló

E5                    D5
Hace ya tiempo que emborraché
  A5                    B5     G5
todos los versos que un día canté
 E5                     D5
con el aliento que da una mujer
G5         E5 G5 A5
que ya no volverá

  C5        D5          E5
Hice inventario de lo que perdí
  C5       D5            B5
Eché las cuentas de lo que invertí
  C5       D5         E5
años de lucha, noches sin dormir
C5           D5           B5
y ahora soy músico y te tengo a ti

         G5            E5
Quiero cantar quiero gritar
        D5          B5
quiero vivir en libertad
        G5            E5
quiero morir cerca de ti
        C5            D5    E5
quiero encontrar lo que perdí

G5, E5, D5, B5
G5, E5, C5, D5, E5


D|--0-2---0-2--------------------------0-2---0-2---5-4---
A|--0-2---0-2--------------------------0-2---0-2---5-4---
E|--------------X-X-X-X-X-X-X-X-X-X----------------3-2---


 E5                   D5
Por las esquinas de alguna canción
 A5                    B5      G5
vende su alma a veces la ilusión
 E5                D5
pero jamás la mía venderé
G5       E5 A5 G5
rockero moriré

 C5          D5              E5
Abrigo derrotas y les doy calor
 C5        D5               B5
con una rima que cosí a mi voz
C5         D5              E5
maquillo nostalgias y les doy color
C5         D5          B5
con pentagramas que pinté


         G5            E5
Quiero cantar quiero gritar
        D5          B5
quiero vivir en libertad
        G5            E5
quiero morir cerca de ti
        C5            D5    E5
quiero encontrar lo que perdí


Para hacer el efecto, mantenganse en E5 y con la palanca
empujenla poco a poco y sueltenla poco a poco para al
ultimo jalarla y empezar el solo


El solo se acompaña asi:

E5, C5, B5, A5, E5, G5, E5, C5, D5, E5

DESPUES EN ORDEN DESCENDENTE:

E5 D5 C5 B5 A5 G5 E5 F#5 E5  X2

         G#5          F5
Quiero cantar quiero gritar
        D#5          C5
quiero vivir en libertad
        G#5          F5
quiero morir cerca de ti
        C#5            D#5   F5
quiero encontrar lo que perdí


         G#5            F5
Quiero cantar quiero gritar
        D#5          C5
para que entiendas que yo fui
        G#5            F5
solo un juglar que se escondió
        C#5       D#5
entre canciones y una voz

SE ACOMPAÑA ASI EN LOS HOO O OOO Y
HASTA EL FINAL EN ORDEN DESCENDENTE:

F5 D#5 C#5 C5 A#5 G#5 F5 G5 F5

este es el solo del final:

e|-13-13-13-13-16-16-16-16---------------------------
B|-------------------------16-16-13-13---------------
G|--------------------------------------13-13-13-13--
D|---------------------------------------------------

  -------------13-13-13-13---------------------------
  -14-14-14-14--------------13-13--------------------
  -------------------------------13-13---------------
  -------------------------------------15-15-15-15---

  -------------------------------------------
  -------------13-13-13-13-------------------
  -15-15-15-15--------------13-13------------
  --------------------------------17-17-15-15-

  ---------------------
  ---------------------
  -12-13-15-12---------
  --------------13-15---


dudas, quejas, aclaraciones, ayuda, arriba esta mi correo

            
            
Suggest correction
Creating personal tab
Creating personal tab
You can edit any tab online and save it as your Personal.

You can edit, replace or remove any tab part or add personal notes – all changes will be seen only by you.

Personal tabs can be accessed anytime from any device, even offline.
Learn more »
Give kudos to tab author, rate the tab!
1 2 3 4 5
comments
print report bad tab
guest
Wanna post a correction for this tab? Suggest correction