Oops, an error
Loading. Please wait.

El Rincón De Los Sentidos Tab

version 3
version 3

Whole song

Interactive

35 views 1 this week
no commentswrite comment
1 2 3 4 5
3 more votes to show rating
add to favorites
launch autoscroll
font size
0
reset
how to read this tab
guitar tuner
×
Best way to learn
"El Rincón De Los Sentidos"
Autoscroll
slow
fast
+/-
esc
set tempo
stop
Esto es una complementacion de la transcripcion de "juan"
(que esta muy bien echa) pero le faltaba el solo
asi que aqui se los dejo.!
venga no es dificil, suerte!!


][ Solo 2:25][

--------------------------------15s17-15--15s17-15--------------
-12-9---------17v-15-17-15---15--------------------17-15-17-----
------10-9v----------------16-----------------------------------
----------------------------------------------------------------
----------------------------------------------------------------
----------------------------------------------------------------

2:34

------------------------------------------------------------------------
-17s19-17-15--17-15--15-17-15-----15--------15--------------------------
------------17-----17--------17-15--17-15-17--17-15-14-15-17-14-10-12v---
------------------------------------------------------------------------
------------------------------------------------------------------------
------------------------------------------------------------------------

Despues suena algo como esto 2:38,

-------------------------------------------------------------------
-17-20-17-------17-------------------------------------------------
---------17---17--17-------15-19-15-----------17-------------------
------------19------19-15----------19-17-19-20--19-15-17-----------
-------------------------------------------------------------------
-------------------------------------------------------------------

Espero que les sirva de algo banda!!

Dudas, agradecimientos o amenazas  a mi correo
un saludo!!
Suggest correction
Give kudos to tab author, rate the tab!
1 2 3 4 5
comments
print report bad tab
guest
You may want to rate the tab now too:
select rating
Wanna post a correction for this tab? Suggest correction