Oops, an error
Loading. Please wait.

El Señor De Los Gramillos Bass

581 views 9 this week
no commentswrite comment
1 2 3 4 5
2 more votes to show rating
add to favorites
×
Save as Personal and add changes to this tab that will be seen only by you. Learn more ›
×
You can save this tab as Personal to edit and correct it or add notes. All changes will be seen only by you. Learn more »
save as personal
new!
launch autoscroll
font size
0
reset
guitar tuner
Autoscroll
slow
fast
+/-
esc
set tempo
stop
Me parece que esta tablatura es mucho mejor de la que 
ya existe, en especial en el intro y otras partes que 
estan mas detalladas.


Intro (hasta el 0:14)         
G|-----------------------       ------------------
D|-----------------------       ------------------
A|-----------6-7--------- x9    ------------------   Pausa... 
E|---66-9-6-9------------       -----6------------

Riff 1 (0:15 - 0:20)
G|-----------------------       -----------------------
D|-----------------------       -----------------------
A|-----------6-7--------- x3    --7-6-5--7-6-5--7?-----
E|---66-9-6-9------------       ------------------9----

* (0:21 - 0:39) Riff 1 x3  

riff 2  (0:40 ? 0:51) (necesito un medio...)
G|---------------------------------
D|---------------------------------
A|---------------------6--7--------  x4
E|--6-66-6-66-6-66---9-------------

riff 2?  (0:51 ? 1:00) (ahora mi dueño...)
G|---------------------------------
D|---------------------------------
A|---------------------6--7--------  x3
E|--6--6-6--6?6--6---9-------------

riff 3  (1:01 ? 1:27) 
G|---------------------------------
D|---------------------------------
A|---------------------------------  
E|--6--6-6--6?6--6------6--8--9----

G|--------------------------|------------------------------   
D|--------------------------|------------------------------
A|--------------------------|-----------------6--7---------  x2
E|--9-9-9-9-9---8-8-8-8-8---|---6-6--9--6-9----------------

G|--------------------------------------------------------   
D|--------------------------------------------------------
A|--------------------------------------6-6-6-6-6-6-------  
E|--9-9-9-9-9---8-8-8-8-8---9-9-9-9-9---------------------

G|--------------------------------------------------------   
D|--------------------------------------------------------
A|--------------------------8-8-8-8-8-8-------------------  Pausa...
E|--9-9-9-9-9---8-8-8-8-8---------------------------------

Riff 1 (1:27 - 1:39)
G|-----------------------       -----------------------
D|-----------------------       -----------------------
A|-----------6-7--------- x3    --7-6-5--7-6-5--7?-----
E|---66-9-6-9------------       ------------------9----

G|-----------------------       -----------------------
D|-----------------------       -----------------------
A|-----------6-7--------- x3    --7-6-5--7-6-5--7?-----
E|---66-9-6-9------------       ------------------9----

* (1:39 ? 1:51) Riff 2 x4  
* (1:51 ? 2:00) Riff 2? x4  

* (2:00 ? 2:25) Riff 3   

Riff 4    (2:25 ? 2:32)
G|------------------|-------------------------
D|------------------|-------------------------
A|------------------|-8-88-8--4-44-4----------
E|-6-6-6-6-6-6-6-6--|------------------8-88-8-

		(2:32 ? 2:42)
G|-----------------------------------------
D|-----------------------------------------
A|----------8-88-8--4-44-4-----------------
E|--6-66-6------------------8-88-8---------

G|----------------------------------|---------------------------
D|----------------------------------|---------------------------
A|----------8-88-8--4-44-4----------|----------8-88-8--4--------
E|--6-66-6------------------8-88-8--|--6-66-6------------5-7-8?

		(2:42 ? 3:29)
G|-----------------------------------------
D|-----------------------------------------
A|----------8-88-8--4-44-4----------------- 
E|--6-66-6------------------8-88-8---------
	
		(3:29 ? 3:37)
G|-----------------------|------------------
D|-----------------------|------------------
A|------4-6--------------|------------------ Pausa...
E|--6-6-------6-6-8-9----|-----6-8-9-8------

		(3:37 ? 4:00)
G|------------------------|-----------------------------
D|------------------------|-----------------------------
A|------------------------|--444-3-444-3-444-3-4-6-4-3--   x2
E|--666-5-666-5-666-5-666-|-----------------------------

G|------------------------|-----------------------------
D|------------------------|-----------------------------
A|------------------------|--444-3-444-3-444------------   
E|--666-5-666-5-666-5-666-|--------------------6-8-9----

* (4:00 ? 4:49) Riff 3   x2

Outro

G|-----------------------       
D|-----------------------     
A|-----------6-7--------- Hasta que se desvanezca 
E|---66-9-6-9------------       


Creo que esta tablatura esta correcta, puede que haya un poco de 
falla en el Riff 3 pero de todas formas se oye bien. 
Comentarios o sugerencias: javierthellaeche@
Suggest correction
Give kudos to tab author, rate the tab!
1 2 3 4 5
comments
print report bad tab
guest
Wanna post a correction for this tab? Suggest correction