Oops, an error
Loading. Please wait.

El Señor De Los Gramillos Tab

version 1
version 1

Whole song

176 views 3 this week
no commentswrite comment
1 2 3 4 5
3 more votes to show rating
add to favorites
launch autoscroll
font size
0
reset
how to read this tab
guitar tuner
×
Best way to learn
"El Señor De Los Gramillos"
Autoscroll
slow
fast
+/-
esc
set tempo
stop
INTRO:
x2
6--5--5---5-------5-5---5-------5-5---5-------5-5---5-------5---|-5---
5-------3---3-5-6-----3---3-5-6-----3---3-5-6-----3---3-5-6-----|-7---
4---------------------------------------------------------------|-7---
3---------------------------------------------------------------|-----
2---------------------------------------------------------------|-----
1---------------------------------------------------------------|-----
 
 despues se prende la cancion
x4
6--5--5---5-------5-5---5-------5-5---5-------------------------
5-------3---3-5-6-----3---3-5-6-----3---3-5-6--6-5-3-6-5-3-0----
4---------------------------------------------------------------
3---------------------------------------------------------------
2---------------------------------------------------------------
1---------------------------------------------------------------

 solo de fondo

2--9--11--12--11--9--11--12--11---------------------------------
1---------------------------------------------------------------

                 nesecito un medio...............vivir
6--5-xxx---------5-xxx--------
5--7-xxx-0-3-5-6-7-xxx-0-3-5-6
4--7-xxx---------7-xxx--------
3-----------------------------
2-----------------------------
1-----------------------------

                 hola mi dueño..................
6--5-xxx---------5-xxx--------
5--2-xxx-0-3-5-6-2-xxx-0-3-5-6
4--2-xxx---------2-xxx--------
3-----------------------------
2-----------------------------
1-----------------------------

6--0-2-3-xx--2-xx--0--------------------------
5--2-4-5-xx--4-xx--2--0-3-0-5-6-0-0-3-0-5-6-0-
4--2-4-5-xx--4-xx--2--------------------------
3---------------------------------------------
2---------------------------------------------
1---------------------------------------------

lo demas continua con el casi con el mismo formato
luego mando la parte del violin.
saludos a la banda del 'B', y arriba el heavi en español.
correcciones a celta@ por que cro que si las nesecit, 
ya que esta es la primera transcripcion de mi vida.
Suggest correction
Give kudos to tab author, rate the tab!
1 2 3 4 5
comments
print report bad tab
guest
You may want to rate the tab now too:
select rating
Wanna post a correction for this tab? Suggest correction