Oops, an error
Loading. Please wait.

El Señor De Los Gramillos Tab

version 2
version 2

Whole song

82 views 1 this week
no commentswrite comment
1 2 3 4 5
3 more votes to show rating
add to favorites
launch autoscroll
font size
0
reset
how to read this tab
guitar tuner
Autoscroll
slow
fast
+/-
esc
set tempo
stop
Help us to improve Ultimate-Guitar.com Take our survey!
×
para la bandera oh si esta bien genial
yeepp!!
Bajo

--------------------------------------------------------------------
--------------------------------------------------------------------
--------------------------------------------------------------------
--------------------------------------------------------------------
--0---0-3--0-3-5-6---0---0-3--0-3-5-6---0-3--0-3-5-6--6-5-3--6-5-3-6
--------------------------------------------------------------------

0:06               0:10
----------         ----------
----------         ----------
----------         ----------
----7~----         ----7~----
----7~----         ----7~----
----5~----         ----5~----

0:15
--------8----8-10-11--------8----8-10-11--11-10-8-11-10-8-11--
--10-10---10----------10-10---10----------------------------10
--------------------------------------------------------------
--------------------------------------------------------------
--------------------------------------------------------------
--------------------------------------------------------------

0:27
--------------------------------------------------------------
--10^-----12^-----13^-----12^------10^-----12^-----13^-----12^
--------------------------------------------------------------
--------------------------------------------------------------
--------------------------------------------------------------
--------------------------------------------------------------

0:38
necesito un medio...
--------------------
--------------------
--------------------
-------------------- x4
-0xx-0xx--000-3-5-6-
--------------------

0:50
hola mi dueño...
--------------------
--------------------
--------------------
-------------------- x4
-xxxxxxxxxxxx-3-5-6-
--------------------

1:02
--------------------------------------------------------
--------------------------------------------------------
-2--4--5xxx--4xxx---------------------------------------
-2--4--5xxx--4xxx---------------------------------------
-0--2--3xxx--2xxx--0--0--3--0-3-5-6---0--0--3--0-3-5-6--
--------------------------------------------------------

---------------------------------------------------
---------------------------------------------------
--5xxx--4xxx---------------------------------------
--5xxx--4xxx---------------------------------------
--3xxx--2xxx--0--0--3--0-3-5-6---0--0--3--0-3-5-6--
---------------------------------------------------

yo puedo hacer hablar a los grillos...

-----------------------------------------------------
-----------------------------------------------------
--5xxx--4xxx---5xxx--4xxx---5xxx--4xxx---------------
--5xxx--4xxx---5xxx--4xxx---5xxx--4xxx---------------
--3xxx--2xxx---3xxx--2xxx---3xxx--2xxx---------------
-----------------------------------------------------
              irule   ion machi
---------------------
---------------------
---------------------
--7-7-7-7-7-7--------
--7-7-7-7-7-7--------
--5-5-5-5-5-5--------

se repite el intro con todo y el violin
dos veces mientras dice de nuevo ¡¡irule ion machin!!

1:38
tengo una banda de duendes rockeros...
--------------------
--------------------
--------------------
-------------------- 
-0xx-0xx--000-3-5-6-
--------------------

a la luces y efectos esta torquemada

--------------------
--------------------
--------------------
-------------------- 
-xxxxxxxxxxxx-3-5-6-
--------------------

2:02
y veras que en mi todo es diversion

--------------------------------------------------------
--------------------------------------------------------
-2--4--5xxx--4xxx---------------------------------------
-2--4--5xxx--4xxx---------------------------------------
-0--2--3xxx--2xxx--0--0--3--0-3-5-6---0--0--3--0-3-5-6--
--------------------------------------------------------

--------------------------------------------------------
--------------------------------------------------------
--5xxx--4xxx--------------------------------------------
--5xxx--4xxx--------------------------------------------
--3xxx--2xxx--0--0--3--0-3-5-6---0--0--3--0-3-5-6-------
--------------------------------------------------------

-----------------------------------------------------
-----------------------------------------------------
--5xxx--4xxx---5xxx--4xxx---5xxx--4xxx---------------
--5xxx--4xxx---5xxx--4xxx---5xxx--4xxx---------------
--3xxx--2xxx---3xxx--2xxx---3xxx--2xxx---------------
-----------------------------------------------------
              
---------------------
---------------------
---------------------
--7-7-7-7-7-7--------
--7-7-7-7-7-7--------
--5-5-5-5-5-5--------

2:25
-----------------------------------------------
-----------------------------------------------
-----------------------------------------------
-----------------------------------------------
-0--0--0--0--0--0--0--0--0--0--0--0--0--0--0--0
-----------------------------------------------

2:28
violin
-------------10-12-12-10--------------------10-12-10--------------
-10-10-12-13--------------13-12-------12-13----------13-12-13-12--
--------------------------------12-12----------------------------- 
------------------------------------------------------------------
------------------------------------------------------------------
------------------------------------------------------------------

-------------10-12-12-10------------------10-----
-10-10-12-13--------------13-12-----12-13--------
--------------------------------12--------------- 
-------------------------------------------------
-------------------------------------------------
-------------------------------------------------

-------12-13-15-17-17-15-13-12-------12-13-15-17-17-15-13-12--12-13-15-
-15-15-------------------------13-13------------------------13---------
-----------------------------------------------------------------------
-----------------------------------------------------------------------
-----------------------------------------------------------------------
-----------------------------------------------------------------------

+++requinto+++

3:35
irule irule irule irule ion machin
--------------------------------------------------------------
--------------------------------------------------------------
--------------------------------------------------------------
--------------------------------------------------------------
-0xxxxxxxxxx-2xx-3xxxxxxxxxxxxxxxxxx--2xxxxx-- 0xxxxxxxxxxxxxx
--------------------------------------------------------------

3:59
y veras que en mi todo es diversion

--------------------------------------------------------
--------------------------------------------------------
-2--4--5xxx--4xxx---------------------------------------
-2--4--5xxx--4xxx---------------------------------------
-0--2--3xxx--2xxx--0--0--3--0-3-5-6---0--0--3--0-3-5-6--
--------------------------------------------------------

---------------------------------------------------
---------------------------------------------------
--5xxx--4xxx---------------------------------------
--5xxx--4xxx---------------------------------------
--3xxx--2xxx--0--0--3--0-3-5-6---0--0--3--0-3-5-6--
---------------------------------------------------

-----------------------------------------------------
-----------------------------------------------------
--5xxx--4xxx---5xxx--4xxx---5xxx--4xxx---5-5-5-5-----
--5xxx--4xxx---5xxx--4xxx---5xxx--4xxx---5-5-5-5-----
--3xxx--2xxx---3xxx--2xxx---3xxx--2xxx---3-3-3-3-----
-----------------------------------------------------

4:22
y veras que en mi todo es diversion

--------------------------------------------------------
--------------------------------------------------------
-2--4--5xxx--4xxx---------------------------------------
-2--4--5xxx--4xxx---------------------------------------
-0--2--3xxx--2xxx--0--0--3--0-3-5-6---0--0--3--0-3-5-6--
--------------------------------------------------------

---------------------------------------------------
---------------------------------------------------
--5xxx--4xxx---------------------------------------
--5xxx--4xxx---------------------------------------
--3xxx--2xxx--0--0--3--0-3-5-6---0--0--3--0-3-5-6--
---------------------------------------------------

-----------------------------------------------------
-----------------------------------------------------
--5xxx--4xxx---5xxx--4xxx---5xxx--4xxx---5-5-5-5-----
--5xxx--4xxx---5xxx--4xxx---5xxx--4xxx---5-5-5-5-----
--3xxx--2xxx---3xxx--2xxx---3xxx--2xxx---3-3-3-3-----
-----------------------------------------------------

irule ion machin

-----------------------------------------------------
-----------------------------------------------------
-----------------------------------------------------
--7~------------7~--------------7~-------------------
--7~------------7~--------------7~-------------------
--5~------------5~--------------5~-------------------

se acaba desvaneciendose

hay esta mas o menos
Suggest correction
Give kudos to tab author, rate the tab!
1 2 3 4 5
comments
print report bad tab
guest
You may want to rate the tab now too:
select rating
Wanna post a correction for this tab? Suggest correction