Oops, an error
Loading. Please wait.

El Templo Del Adiós Bass

version 1
version 1

Whole song

Interactive

102 views 1 this week
no commentswrite comment
1 2 3 4 5
3 more votes to show rating
add to favorites
×
Save as Personal and add changes to this tab that will be seen only by you. Learn more ›
×
You can save this tab as Personal to edit and correct it or add notes. All changes will be seen only by you. Learn more »
save as personal
new!
launch autoscroll
font size
0
reset
guitar tuner
backing track
0:00
0:00
Autoscroll
slow
fast
+/-
esc
set tempo
stop
esta cancion es un poco aburrida pero tiene
sus partes buenas de bajo asi que espero que les guste
y perdon por los tiempos pero nose como se hacen ni
como se ponen asi que aqui hay una cancion mas de mago
de oz.

  intro
G||----------------------------------------
D||--2-2-2-2-2-2-2-------------------------
A||-----------------3-3-3--3h5--3-2-1------
E||----------------------------------------

E||------------------------------
D||-------------------2-2-2------
A||------------------------------
E||---2-2-2-2-2-2-2--------------

G||--------------------------------
D||---2-2-2-2-2-2-2----------------
A||------------------3-3-3-3-3-3---
E||--------------------------------

verso (0:24) (cuentan que estando cerca....)
G||-----------------------------------
D||---2-2-2----------------1-1-1------
A||-----------------3-3-3-------------
E||----------2-2-2--------------------

G||----------------------------------0-----------
D||-----------------2-2-2--------0-1----3-0-1----
A||---3-3-3-----------------0-2------------------
E||----------2-2-2-------------------------------

G||------------------------------------
D||--2-2-2------------------2-2-2------
A||-----------------5-5-5--------------
E||---------2-2-2----------------------

G||--------------------------------
D||--------------------2-2-2-2-----
A||--3-3-3-3-----------------------
E||-----------2-2-2-2--------------

puente (0:48) (todo lo que empieza..)
G||------------------------------------------------
D||-------------------------2-2-2-2-2--2-2-2-2-2---
A||--3-3-3-3-3--3-3-3-3-3--------------------------
E||------------------------------------------------

G||-----------------------------------------
D||-------------------------2-1-2--5-3-2----
A||-----------------------------------------
E||--2-2-2-2-2--2-2-2-2-2-------------------

G||-------------------------------------------------
D||-------------------------2-2-2-2-2--2-2-2-2-2----
A||--3-3-3-3-3--3-3-3-3-3---------------------------
E||-------------------------------------------------

G||---------------------------------------
D||---------------------------------------
A||-------------3-3-3-3-3----5-5-5-5-5----
E||--2-2-2-2-2----------------------------

G||---------------------
D||--2-2----------------
A||-------3-3-----------
E||-------------2-2-----

*(1:12) (es tiempo de regresar...) se toca el intro completo

*(1:39) (cuentan que cuando no...) se toca el verso

*(2:03) (ya todo esta hecho...) se toca todo el puente

(2:19) se toca todo el intro


(2:43) solo de guitarra                    2:52
G||-----------------------------------|-----------------------------------
D||-2-2-2-2-2-2-2-2-------------------|---------2--2-2-2--2---------------
A||------------------3-3-3-3-3-3-3-3--|-----2-3-------------3--3-3-3--3-2-
E||-----------------------------------|-2-3-------------------------------

           3:05           3:06                    3:11
G||-------------------|----------------------|-----------------------------
D||-------------------|--2-2-2--2------------|-------1h3-5--5h3-1----------
A||-2-2-2--2-1--1-1-1-|-----------3-1--1-1-1-|--1-1----------------3-3-----
E||-------------------|----------------------|-----------------------------

     3:18---------------------------------------> 3:28
G||------------------------------------------------------|
D||------------------------------------------------------|
A||--1-1--3-3-3-5--5-5-7--7-7-9--9-9-11--11--13----------|
E||------------------------------------------------------|

*(3:30) (ya todo esta hecho..) se toca el puente x2

*(4:09) el outro se toca todo el intro x2

-*-*-*-*-*-*-*-*-*-*-*-*-*-FIN*-*-*-*-*-*-*-*-*-*-*-*-*-*-*-*-

va la septima tablatura de Mago de oz cualquier corrección o comentario 
a jmuller87@ (chily beans del  Roble) Guatemala
NOTA: EL LA TAB DE JESUS DE CHAMBERI EN EL FINAL PARTE DE HUID
DEL SEXO DICE UN PREDICADOR SE TOCA 2 VECES. Y EL RIFF 2 NO ES 2
SINO QUE ES 'RIFF 1'
Suggest correction
Give kudos to tab author, rate the tab!
1 2 3 4 5
comments
print report bad tab
guest
Wanna post a correction for this tab? Suggest correction