Oops, an error
Loading. Please wait.

El Templo Del Adiós Bass

version 2
version 2

Whole song

Interactive

34 views 1 this week
no commentswrite comment
1 2 3 4 5
3 more votes to show rating
add to favorites
×
Save as Personal and add changes to this tab that will be seen only by you. Learn more ›
×
You can save this tab as Personal to edit and correct it or add notes. All changes will be seen only by you. Learn more »
save as personal
new!
launch autoscroll
font size
0
reset
guitar tuner
backing track
0:00
0:00
Autoscroll
slow
fast
+/-
esc
set tempo
stop
Author
Unregistered
~~~~~~~~~~~~~~~~~~~~~~~~~~~~~~~~~~~~~~~~~~~~~~~~~~
~~~~~~~~~~~~~~~~~~~~Mägo de OZ~~~~~~~~~~~~~~~~~~~~

Este es un arreglo del Tab anterior de esta canción, ya que se encontraba muy lejos de sonar parecida.

  Intro (Hasta 00:23)
G||------------------------------------------------------------
D||------------------3--3-3-2-3-2------------------------------
A||----------------3--------------3----------------------------
E||--5--5--5--5-1-------------------3--3--3--3-----------------

G||------------------------------------------------------------
D||------------------------------------------------------------
A||----------------------------------------3-5--5--5--5-4------
E||--5--5--5--0-3--5--5--5-0-1-3--3--3--3-5---------------5-5-5


  Puente
G||-------------------------------------------------------------
D||------------------2--0---------------------------------------
A||----------2---3--------2---3---------------------------------
E||---3---5-----------------------------------------------------

   (00:25)   (Comienza Jose a cantar)
G||------------------------------------------------------------
D||------------------------------------------------------------
A||--3--3--3-3--------5--5--5-5--------------------------------
E||------------3-3--3-----------5--5--5--1--1--1-3--3--3-5--5-5

G||-------------------------------------------------------------
D||------------------2--0---------------------------------------
A||----------2---3--------2---3---------------------------------
E||---3---5-----------------------------------------------------

G||------------------------------------------------------------
D||------------------------------------------------------------
A||--3--3--3-3-------------------------------------------------
E||------------3-3--3-0--0--0-0-5--5--5--1--1--1-3--3--3-5--5-5
                                                  (00:48)
   Coro
G||-----------------------------------------------
D||-----------------------------------------------
A||--5-5-5-3-5--5-5-5-3-5-5-----------------------
E||-------------------------5-5-5-3-5--5-5-5-3-5--

  Coro A
G||-----------------------------------------------
D||-----------------------------------------------
A||-----------------------------------------------
E||--3-3-3-1-3--3-3-3-1-3-3-5-5-5-3-5--5-5-5-3-5--

  Coro B
G||-----------------------------------------------
D||-----------------------------------------------
A||----------5--5--5------------------------------
E||--3--3--3---------0-0-0-0-0-0-0-0--------------


G||---------------------------
D||--------3------------5-----
A||-----3-----3------5-----5--
E||--1------------3-----------
                           (Esto va terminando por 01:16)


  Intro de nuevo
G||------------------------------------------------------------
D||------------------3--3-3-2-3-2------------------------------
A||----------------3--------------3----------------------------
E||--5--5--5--5-1-------------------3--3--3--3-----------------

G||------------------------------------------------------------
D||------------------------------------------------------------
A||----------------------------------------3-5--5--5--5-4------
E||--5--5--5--0-3--5--5--5-0-1-3--3--3--3-5---------------5-5-5


  Puente
G||-------------------------------------------------------------
D||------------------2--0---------------------------------------
A||----------2---3--------2---3---------------------------------
E||---3---5-----------------------------------------------------

G||------------------------------------------------------------
D||------------------------------------------------------------
A||--3--3--3-3--------5--5--5-5--------------------------------
E||------------3-3--3-----------5--5--5--1--1--1-3--3--3-5--5-5

G||-------------------------------------------------------------
D||------------------2--0---------------------------------------
A||----------2---3--------2---3---------------------------------
E||---3---5-----------------------------------------------------

G||------------------------------------------------------------
D||------------------------------------------------------------
A||--3--3--3-3-------------------------------------------------
E||------------3-3--3-0--0--0-0-5--5--5--1--1--1-3--3--3-5--5-5
                                                  (00:48)


   Coro
G||-----------------------------------------------
D||-----------------------------------------------
A||--5-5-5-3-5--5-5-5-3-5-5-----------------------
E||-------------------------5-5-5-3-5--5-5-5-3-5--


Esta vez solamente el Coro B
G||-----------------------------------------------
D||-----------------------------------------------
A||----------5--5--5------------------------------
E||--3--3--3---------0-0-0-0-0-0-0-0--------------


G||---------------------------
D||--------3------------5-----
A||-----3-----3------5-----5--
E||--1------------3-----------
                           (Esto va terminando por 02:20)

  Intro de nuevo, con una variación en la última nota
G||------------------------------------------------------------
D||------------------3--3-3-2-3-2------------------------------
A||----------------3--------------3----------------------------
E||--5--5--5--5-1-------------------3--3--3--3-----------------

G||------------------------------------------------------------
D||------------------------------------------------------------
A||----------------------------------------3-5--5--5--5-4------
E||--5--5--5--0-3--5--5--5-0-1-3--3--3--3-5---------------0-0-0
                                                     (Variación)

  Solo de guitarra (02:44)  X2
G||---------------------------------
D||------------------3--3-3-2-3-2---
A||----------------3--------------3-
E||--5--5--5--5-1-------------------

   Y en la tercera vez
G||-------------------------------------------------
D||---------------------5---------------------------
A||------------------5---------3-5--5--5--5-4-------
E||--5--5--5--5-0-3--------3-5---------------0-0-0-0


  Coro (03:32)
G||-----------------------------------------------
D||-----------------------------------------------
A||--5-5-5-3-5--5-5-5-3-5-5-----------------------
E||-------------------------5-5-5-3-5--5-5-5-3-5--

  Coro A
G||-----------------------------------------------
D||-----------------------------------------------
A||-----------------------------------------------
E||--3-3-3-1-3--3-3-3-1-3-3-5-5-5-3-5--5-5-5-3-5--

  Coro B
G||-----------------------------------------------
D||-----------------------------------------------
A||----------5--5--5------------------------------
E||--3--3--3---------0-0-0-0-0-0-0-0--------------

G||-----------------------------------------------
D||-----------------------------------------------
A||--5-5-5-3-5--5-5-5-3-5-5-----------------------
E||-------------------------5-5-5-3-5--5-5-5-3-5--


Esta vez solamente el Coro B
G||-----------------------------------------------
D||-----------------------------------------------
A||----------5--5--5------------------------------
E||--3--3--3---------0-0-0-0-0-0-0-0--------------

G||---------------------------
D||--------3------------5-----
A||-----3-----3------5-----5--
E||--1------------3-----------


Intro/Outro (04:12)
G||------------------------------------------------------------
D||------------------3--3-3-2-3-2------------------------------
A||----------------3--------------3----------------------------
E||--5--5--5--5-1-------------------3--3--3--3-----------------

G||------------------------------------------------------------
D||------------------------------------------------------------
A||----------------------------------------3-5--5--5--5-4------
E||--5--5--5--0-3--5--5--5-0-1-3--3--3--3-5---------------5-5-5

Notas finales

G||---------------------------
D||---------------------------
A||---------------------------
E||---1-----0-----5-----------


Solo es cuestión de agarrarle bien los tiempos.


Correcciones, consejos, comentarios, insultos o amenazas pueden mandarlas a destruy@
Suggest correction
Give kudos to tab author, rate the tab!
1 2 3 4 5
comments
print report bad tab
guest
Wanna post a correction for this tab? Suggest correction