Oops, an error
Loading. Please wait.

El Violín Del Diablo Tab

version 1
version 1

Whole song

Interactive

50 views 1 this week
no commentswrite comment
1 2 3 4 5
3 more votes to show rating
add to favorites
launch autoscroll
font size
0
reset
how to read this tab
guitar tuner
×
Best way to learn
"El Violín Del Diablo"
Autoscroll
slow
fast
+/-
esc
set tempo
stop
Bueno pz aqui les dejo esta tab de esta rola tan estupenda!!

INTRO:
e|-2--------2---------3--------3---------
B|-3----------3-------3----------3-------
G|-4-----4------------4-----4------------
D|-4---4--------------5---5--------------
A|-2-2-----------2-0--5-5----------------
E|--------------------3-------------5-4--

e|-0--------0---------0--------0---------
B|-0----------0-------1----------1-------
G|-0-----0------------0-----0------------
D|-2---2---------2-0--2---2--------------
A|-2-2----------------3-3-----------3-0--
E|-0-------------------------------------
(Se repite durante el primer verso)

VERSO 1:
Suena el son de una cancion
sueño sin temer
algo nuevo alrededor
me inunda en su placer, OH!
y me rompe en dos...

el verso termina asi:
e|----------|
B|----4-----|
G|----4-----|
D|----4-----|
A|----2-----|
E|----------|

PRE- VERSO 2
e|-----------------------------------|
B|-----------------------------------|
G|---------------------------7--10---|
D|----------------------6--9---------|
A|------5--8-------5--8--------------|
E|-4--7-------4--7-------------------|

Me cuenta la historia del mundo....

e|------------------------|
B|------------------------|
G|------------------------|
D|------------------------|  X6
A|-3-3-3-3-3-3-3-3-3-3----|
E|------------------------|

...esta a punto de arder
e|------------------------|
B|------------------------|
G|------------------------|
D|------------------------|  X2
A|------------------------|
E|-3-3-3-3-3-3-3-3-3-3----|

Lo anterior se repite X2

e|-----------------------------------|
B|-----------------------------------|
G|---------------------------7--10---|
D|----------------------6--9---------|
A|------5--8-------5--8--------------|
E|-4--7-------4--7-------------------|

ESTRIBILLO
e|------------------------------------------------------|
B|------------------------------------------------------|
G|-----------------2----------------------------5-------|
D|---2-------------2-------------5--------------5-------|
A|---2-------------0-------------5--------------3-------|
E|---0---------------------------3----------------------|
No quiero olvidar quien es el, dejarme atrapar sin dudar

e|---------------------------------------------------------------|
B|---------------------------------------------------------------|
G|---4-------------------------5-----------4---------------------|
D|---4------------2------------5-----------4---------------------|
A|---2------------2------------3-----------2----------2---2---2--|
E|----------------0-----------------------------------0---0---0--|
No quiero olvidar y perder, llegar hasta el fin y volver.

VERSO 2:
Me quedo en silencio...
e|------------------------|
B|------------------------|
G|------------------------|
D|------------------------|  X6
A|-3-3-3-3-3-3-3-3-3-3----|
E|------------------------|

...apenas puedo respirar
e|------------------------|
B|------------------------|
G|------------------------|
D|------------------------|  X2
A|------------------------|
E|-3-3-3-3-3-3-3-3-3-3----|

Lo anterior se repite X2

e|-----------------------------------|
B|-----------------------------------|
G|---------------------------7--10---|
D|----------------------6--9---------|
A|------5--8-------5--8--------------|
E|-4--7-------4--7-------------------|

ESTRIBILLO
e|------------------------------------------------------|
B|------------------------------------------------------|
G|-----------------2----------------------------5-------|
D|---2-------------2-------------5--------------5-------|
A|---2-------------0-------------5--------------3-------|
E|---0---------------------------3----------------------|
No quiero olvidar quien es el, dejarme atrapar sin dudar

e|---------------------------------------------------------------|
B|---------------------------------------------------------------|
G|---4-------------------------5-----------4---------------------|
D|---4------------2------------5-----------4---------------------|
A|---2------------2------------3-----------2----------2---2---2--|
E|----------------0-----------------------------------0---0---0--|
No quiero olvidar y perder, llegar hasta el fin y volver.

No quiero ya, dejarme soñar...
e|-----------------------------------------------------|
B|-----------------------------------------------------|
G|--------2-----------5-----4-----------7--------------|
D|--2-----2-----5-----5-----4-----2-----7-----7-----5--|
A|--2-----0-----5-----3-----2-----2-----5-----7-----5--|
E|--0-----------3-----------------0-----------5-----3--|
(en esta parte tienes que escuchar con atencion la guitarra
para saber cuanto tiempo duran las notas)

PARTE DEL VIOLIN

ESTRIBILLO
e|--------------------------------------------------------------|
B|--------------------------------------------------------------|
G|----------------------2-------------------------------5-------|
D|---2------------------2-------------5-----------------5-------|
A|---2------------------0-------------5-----------------3-------|
E|---0--------------------------------3-------------------------|
El violin del diablo, sonata del mal, canciones ocultas desde el mas alla

e|------------------------------------------------------------|
B|------------------------------------------------------------|
G|---4-------------------------5-----------4------------------|
D|---4------------2------------5-----------4----------------5-|
A|---2------------2------------3-----------2----------2-----5-|
E|----------------0-----------------------------------0-----5-|
No quiero olvidar y perder, llegar hasta el fin y volver.

e|--------------------------------------------------|
B|--------------------------------------------------|
G|-----------5----------4-------------------5----4--|
D|-5---------5----------4---------2---------5----4--|
A|-5---------3----------2---------2---------3----2--|
E|-3------------------------------0-----------------|
    Como pude olvidar, como puedo volver y tocar.


bueno espero y les sirva..

VIVA MAGO DE OZ!!!
Suggest correction
Give kudos to tab author, rate the tab!
1 2 3 4 5
comments
print report bad tab
guest
You may want to rate the tab now too:
select rating
Wanna post a correction for this tab? Suggest correction