Oops, an error
Loading. Please wait.

El Violín Del Diablo Tab

version 2
version 2

Whole song

Interactive

37 views 1 this week
no commentswrite comment
1 2 3 4 5
3 more votes to show rating
add to favorites
×
Save as Personal and add changes to this tab that will be seen only by you. Learn more ›
×
You can save this tab as Personal to edit and correct it or add notes. All changes will be seen only by you. Learn more »
save as personal
new!
launch autoscroll
font size
0
reset
how to read this tab
guitar tuner
Autoscroll
slow
fast
+/-
esc
set tempo
stop
durante el intro una guitarra hace el arpegio
mientras otra solo rasga el acorde
y se repite durante el primer verso

el B* el F* y el G* son asi:

  B*
e|-----------------|-----|
B|-----------------|-----|
G|-----------------|-----|
D|-----------------|-----|
A|-2-2-2-2-2-2-2-2-|-2-2-| x6
E|-----------------|-----|

 F*
e|-----------------|-----|
B|-----------------|-----|
G|-----------------|-----|
D|-----------------|-----|
A|-----------------|-----| x2
E|-1-1-1-1-1-1-1-1-|-1-1-|

  G*
e|-----------------|-----|
B|-----------------|-----|
G|-----------------|-----|
D|-----------------|-----|
A|-----------------|-----| x2
E|-3-3-3-3-3-3-3-3-|-3-3-|

    Bm  G   Em  C   B
e|--2---3---0---0---2---|
B|--3---3---0---1---4---|
G|--4---4---0---0---4---|
D|--4---5---2---2---4---|
A|--2---5---2---3---2---|
E|------3---0-----------|

Riff 1
e|------------|------------------|
B|------------|------------------|
G|------------|-------------7-10-|
D|------------|---------6-9------|
A|-------5--8-|-----5-8----------|
E|-4--7-------|-4-7--------------|

Riff 2:
(hay q poner mucha antencion para saber como es)
e|---------------------------------|
B|---------------------------------|
G|---------------------------------|
D|---------------------------------|
A|-2-2-2-2-2-2-2-2-----------------|
E|-----------------3-3-3-3-3-3-3-3-|

Intro:
   Bm                G                 Em                C
e|-------2---------|-------3---------|-------0---------|-------0---------|
B|---------3-------|---------3-------|---------0-------|---------1-------|
G|-----4-----4-----|-----------4-----|-----------0-----|-----0-----0-----|
D|---4-------------|-----5-----------|-----2-------2-0-|---2-------------|
A|-2-----------2-0-|---5-------------|---2-------------|-3-----------3-0-|
E|-----------------|-3-----------3-2-|-0---------------|-----------------|

Bm               G
Suena el son de una cancion
Em            C
sueño sin temer
Bm            G
algo nuevo alrededor
Em                  C   Bm
me inunda en su placer
               B
y me rompe en dos...

Riff 1

B*
Me cuenta la historia del mundo y detrás me acuna en su lecho
despide al mortal
                                F*
Cumple mis deseos y mi voluntad esta a punto de arder

B*
Prefiero ocultar la persona que fui cuando mas le pido mas puedo exigir

Me atrapa en su mundo no quiero escapar de este sueño y sentir
(Riff 1)
su mal...

E             A5         G5
No quiero olvidar que es él
        C5             B5
dejarme atrapar sin dudar
              E5        F5
no quiero olvidar y perder
                C5      E5
llegar hasta aquí y volver

B*
Me quedo en silencio escuchando su voz el sueño es eterno
ya no se quien soy
                                F*
escucho un sonido tan dulce que apenas puedo respirar

B*
Recuerdo que el dia acababa y no se sutil melodía me atrapa otra vez
                                 G*
no puedo escapar debo estar a su lado y volver a sentir
(Riff 1)
su mal...

E             A5         G5
No quiero olvidar que es él
        C5             B5
dejarme atrapar sin dudar
              E5        F5
no quiero olvidar y perder
                C5      E5 (Riff 2)
llegar hasta aquí y volver


E5        A5             G5
No quiero ya dejar de soñar
                           C5
no puedo ya olvidar la verdad
             E5                  D5
quedarme con el llegar hasta al fin
      A5  G5
y volver.

Parte del violin:
hay q poner mucha atencion en esta parte
para saber la duracion y el ritmo de cada nota

D5   G5   D5   F5
A#5  D5   D5
G5   A5   D5   D5
G5   D5   G5   D5
F5   A#5  D5
G5   A5   D5   D5

E5              A5               G5
el violín del diablo sonata del mal
          C5                      B5
canciones ocultas desde el mas allá
               E5       F5
No quiero olvidar y perder
                C5      E5  A5
llegar hasta aquí y volver
B5                               E5
como pude olvidar como puedo volver
     F5  B5  B5
y soñar...


eso es todo
espero que les sirva de algo
esta fue mi primer colaboracion
cualquier duda. comentario. sugerencia.
felicitaciones. mentadas. proposiciones. etc.
favor d mandarlas a:
timi_zombie@
Suggest correction
Give kudos to tab author, rate the tab!
1 2 3 4 5
comments
print report bad tab
guest
Wanna post a correction for this tab? Suggest correction