Oops, an error
Loading. Please wait.

En Nombre De Dios Tab

178 views 1 this week
no commentswrite comment
1 2 3 4 5
3 more votes to show rating
add to favorites
launch autoscroll
font size
0
reset
how to read this tab
guitar tuner
×
Best way to learn
"En Nombre De Dios"
Autoscroll
slow
fast
+/-
esc
set tempo
stop
Intro de teclado adaptado a guitarra)

1|---------|-----------------------|----------17v---|
2|---15v---|-----15-16-15-13-15v---|-----15/16------|
3|---------|---14------------------|---14-----------|
4|---------|-----------------------|----------------|
5|---------|-----------------------|----------------|
6|---------|-----------------------|----------------|

1|---15-17b(19)17-------------------------------------|
2|----------------15b(17)15---------------------------|
3|--------------------------14b(16)14-----------------|
4|------------------------------------12b(14)12-------|
5|----------------------------------------------12v---|
6|----------------------------------------------------|

1|---------|-------------------------------------------10-14-15-|
2|---------|---------------------7h8p8---7-8-10h11p10-----------|
3|---------|---------7h8p7---7-8-------8-------------11---------|
4|-7-8-10v-|---7-8-10-----10------------------------------------|
5|---------|----------------------------------------------------|
6|---------|----------------------------------------------------|

1|---14h15p14--------14h15p14--------14h15p14--------14-15-18v---|
2|-----------16-15-16--------16-15-16--------16-15-16------------|
3|---------------------------------------------------------------|
4|---------------------------------------------------------------|
5|---------------------------------------------------------------|
6|---------------------------------------------------------------|

                                            -------(X8)-------
1|--------17v---|---22-23-22-15p14---------|-14h15p14---------|-14-15v-|
2|---15/16------|-20--------------16-15-16-|---------16-15-16-|--------|
3|-14-----------|--------------------------|------------------|--------|
4|--------------|--------------------------|------------------|--------|
5|--------------|--------------------------|------------------|--------|
6|--------------|--------------------------|------------------|--------|

(Guitarra)

1|---------------------------------------------------------|
2|---------------------------------------------------------|
3|-------------------------3-------------------------------|
4|-------4-------------4-5-----------4-------7-6-----------|
5|---5-6---6-3---5-5-6---------5-5-6---6-3---5-4-8-7-5-4---|
6|-----------------------------------------------6-5-3-2---|(X2)


   Si haz perdido la fe y haz pactado con el mal
1|---------------------------------------------------------|
2|---------------------------------------------------------|
3|-------------------------3-------------------------------|
4|-------4-------------4-5----------4-------3-2-------3----|
5|---5-6---6-3---5-5-6--------5-5-6---6-3---1-0-5-4-5-1-0--|
6|----------------------------------------------3-2-3------|

   pon tu alma en paz que de tu cuerpo yo me ocupare
1|---------------------------------------------------------|
2|---------------------------------------------------------|
3|-------------------------3-------------------------------|
4|-------4-------------4-5-----------4-------7-6-----------|
5|---5-6---6-3---5-5-6---------5-5-6---6-3---5-4-8-7-5-4---|
6|-----------------------------------------------6-5-3-2---|

   A traves del dolor venceras a Lucifer
1|---------------------------------------------------------|
2|---------------------------------------------------------|
3|-------------------------3-------------------------------|
4|-------4-------------4-5----------4-------3-2-------3----|
5|---5-6---6-3---5-5-6--------5-5-6---6-3---1-0-5-4-5-1-0--|
6|----------------------------------------------3-2-3------|

   primero haz de aceptar que ser lesbiana es una enfermedad
1|---------------------------------------------------------|
2|---------------------------------------------------------|
3|-------------------------3-------------------------------|
4|-------4-------------4-5-----------4-------7-6---7-6-----|
5|---5-6---6-3---5-5-6---------5-5-6---6-3---5-4-8-5-4-8---|
6|-----------------------------------------------6-----6---|

     No omitas detalles cuentame como os lo montabais las dos
1|-----------------------------------------------------------|
2|-----------------------------------------------------------|
3|-----------------------------------------------------------|
4|--------------------------------------------------10-9-7---|
5|-0000000000000000----------------------------------8-7-5---|
6|------------------11111111111111-333333333333333-----------|
       --                  --            --                   pm

   Y entonces yo te dare la solucion desnuda y en mi habitacion
1|--------------------------------------------------------------------|
2|--------------------------------------------------------------------|
3|--------------------------------------------------------------------|
4|--------------------------------------------------------------------|
5|-00000000000000000--------------------------------------------------|
6|-------------------11111111111111111-333333333333333-555555555555---|
      --                   --                --             --         pm

   Con la tortura obtendras el perdon
1|--------------------------------------------------------|
2|--------------------------------------------------------|
3|--------------------------------------------------------|
4|--------------------------------------------------------|
5|-7-8-7-5-3-5-7-8-7-5------5------5----5------5------5---|
6|-5-6-5-3-1-3-5-6-5-3-3333-3-3333-3-33-3-3333-3-3333-3---|
                       ----   ----   --   ----   ----      pm

1|-----------------------------------------|
2|-----------------------------------------|
3|-----------------------------------------|
4|-----------------------------------------|
5|----5------5------5----5------5------5---|
6|-33-3-3333-3-3333-3-33-3-3333-3-3333-3---|
   --   ----   ----   --   ----   ----      pm

   Acepta a cristo y muere en nombre de Dios
1|-------------------------------------------------------------------|
2|-------------------------------------------------------------------|
3|---------------------------------------------------3---------------|
4|-------------------------7-------4-------------4-5-----------4-----|
5|-7-8-7-5-3-5-7-8-7-5-3-5-5---5-6---6-3---5-5-6---------5-5-6---6-3-|
6|-5-6-5-3-1-3-5-6-5-3-1-3-------------------------------------------|

   Muere en nombre de Dios
1|---------------------------------------------------------|
2|---------------------------------------------------------|
3|---------------------------------------3-----------------|
4|-3-2-------3---------4-------------4-5-----------4-------|
5|-1-0-5-4-5-1-0---5-6---6-3---5-5-6---------5-5-6---6-3---|
6|-----3-2-3-----------------------------------------------|

1|-----------------|
2|-----------------|
3|-----------------|
4|---7-6-----------|
5|---5-4-8-7-5-4---|
6|-------6-5-3-2---|


   Si quieres confesar tu desviación moral
1|---------------------------------------------------------|
2|---------------------------------------------------------|
3|-------------------------3-------------------------------|
4|-------4-------------4-5----------4-------3-2-------3----|
5|---5-6---6-3---5-5-6--------5-5-6---6-3---1-0-5-4-5-1-0--|
6|----------------------------------------------3-2-3------|

   que eres homosexual que entre tus piernas anda Satanás
1|---------------------------------------------------------|
2|---------------------------------------------------------|
3|-------------------------3-------------------------------|
4|-------4-------------4-5-----------4-------7-6---7-6-----|
5|---5-6---6-3---5-5-6---------5-5-6---6-3---5-4-8-5-4-8---|
6|-----------------------------------------------6-----6---|

   En el quemadero tú arderás el fuego purificará
1|-----------------------------------------------------------|
2|-----------------------------------------------------------|
3|-----------------------------------------------------------|
4|--------------------------------------------------10-9-7---|
5|-0000000000000000----------------------------------8-7-5---|
6|------------------11111111111111-333333333333333-----------|
       --                  --            --                   pm

   todo pecado que tu cuerpo cometió la hoguera te hará a ti el amor
1|--------------------------------------------------------------------|
2|--------------------------------------------------------------------|
3|--------------------------------------------------------------------|
4|--------------------------------------------------------------------|
5|-00000000000000000--------------------------------------------------|
6|-------------------11111111111111111-333333333333333-555555555555---|
      --                   --                --             --         pm

   Con la lujuria te condenarás.
1|--------------------------------------------------------|
2|--------------------------------------------------------|
3|--------------------------------------------------------|
4|--------------------------------------------------------|
5|-7-8-7-5-3-5-7-8-7-5------5------5----5------5------5---|
6|-5-6-5-3-1-3-5-6-5-3-3333-3-3333-3-33-3-3333-3-3333-3---|
                       ----   ----   --   ----   ----      pm

1|-----------------------------------------|
2|-----------------------------------------|
3|-----------------------------------------|
4|-----------------------------------------|
5|----5------5------5----5------5------5---|
6|-33-3-3333-3-3333-3-33-3-3333-3-3333-3---|
   --   ----   ----   --   ----   ----      pm

   Sólo nosotros follamos en nombre de Dios
1|-------------------------|
2|-------------------------|
3|-------------------------|
4|-------------------------|
5|-7-8-7-5-3-5-7-8-7-5-3-5-|
6|-5-6-5-3-1-3-5-6-5-3-1-3-|

  -------(X7)--------
1|-------------------|-----------------|
2|-------------------|-----------------|
3|-------------------|-----------------|
4|---7---------8-5---|---7-6-----------|
5|---5-555-555-6-3---|---5-4-8-7-5-4---|
6|-------------------|-------6-5-3-2---|(Rep. Esta parte 2 veces)
       --- ---     pm

   ------(X7)-------   -----(X3)------
1|-------------------|-----------------|
2|-------------------|-----------------|
3|-------------------|-----------------|
4|---7---------8-5---|-----------------|
5|---5-555-555-6-3---|---8-7-5-4-5-7---|
6|-------------------|---6-5-3-2-3-5---|


(Acompañamiento del 1º solo)

1|-------|-------|-------|-------|-------|-------|-------|-------|
2|-------|-------|-------|-------|-------|-------|-------|-------|
3|-------|-------|-------|-------|-------|-------|-------|-------|
4|-------|-------|-------|-------|-------|-------|-------|-------|
5|---8---|---9---|---6---|---4---|---5---|---7---|---3---|---4---|
6|---6---|---7---|---4---|---2---|---3---|---5---|---1---|---2---|


(2º solo)
                                                    ----(X8)---
1|-------------------------------------------------|-----------|
2|-------------------------------------------------|-----------|
3|-------------------------------------------------|-----------|
4|---------------------7b------------------5---8---|---7h8p7---|
5|-7----7-5---------------8----8-7----/5-8---------|--------10-|
6|---------8----8-7-5--------------6---------------|-----------|

1|------8-9-8-----6h8---------------------------------------------|
2|----11------9---------------------------------------------------|
3|-/10---------10---------------------------------------------5/7-|
4|-------------------------12-11-10---7h8p7---7h8p7---7h8p7-------|
5|----------------------/10---------------10------10-------10-----|
6|----------------------------------------------------------------|

1|-/5----------------------------10-8-6h8p6h8p6---|
2|----8-7-----------------------------------------|
3|--------5h7p5h7p5h7p5---------------------------|
4|----------------------7b------------------------|
5|-------------------------8/1--------------------|
6|------------------------------------------------|

1|------------------------------------------------|
2|-15-13------------------------------13-15/17v---|
3|------15-14-13--------------13-14-15------------|
4|--------------15-14-13-14-15--------------------|
5|------------------------------------------------|
6|------------------------------------------------|

1|----12-13-15-13-12---12-------------------------------------------|
2|-/15--------------15---13v----------------------------------------|
3|------------------------------12-14-14b(16)14--------5-7-6b(8)6---|
4|----------------------------15----------------10----7-----------7-|
5|------------------------------------------------------------------|
6|------------------------------------------------------------------|

1|-------------------------|-------------------|-------------------|
2|-------6-----------------|-------------------|-------------------|
3|-6-7-9---9-7-6h7p6-------|-------------------|-------------------|
4|-------------------8-7---|-------------------|-------------------|
5|-------------------------|-------4-5-4-------|-------4-5-4-------|
6|-------------------------|---5-6-------6-5---|---5-6-------6-3---|

1|-----------------------------------------------------|
2|-----------------------------------------------------|
3|-----------------------------------------------------|
4|-----------------------------------------------------|
5|-------4-5-4-------4-5-4-------4-5-4-----------------|
6|---5-6-------6-5-6-------6-5-6-------6-5-6-5-3-1-0---|


(Igual que la 1º Estrofa)

   Si has perdido la fe y has pactado con el mal
1|---------------------------------------------------------|
2|---------------------------------------------------------|
3|-------------------------3-------------------------------|
4|-------4-------------4-5----------4-------3-2-------3----|
5|---5-6---6-3---5-5-6--------5-5-6---6-3---1-0-5-4-5-1-0--|
6|----------------------------------------------3-2-3------|

   por ser gay o bisexual el Santo Oficio te exorcizará
1|---------------------------------------------------------|
2|---------------------------------------------------------|
3|-------------------------3-------------------------------|
4|-------4-------------4-5-----------4-------7-6-----------|
5|---5-6---6-3---5-5-6---------5-5-6---6-3---5-4-8-7-5-4---|
6|-----------------------------------------------6-5-3-2---|

   Con un auto de fe que aunque cruel es lo mejor
1|---------------------------------------------------------|
2|---------------------------------------------------------|
3|-------------------------3-------------------------------|
4|-------4-------------4-5----------4-------3-2-------3----|
5|---5-6---6-3---5-5-6--------5-5-6---6-3---1-0-5-4-5-1-0--|
6|----------------------------------------------3-2-3------|

   para escarmiento de quien no sigue la doctrina de la fe
1|---------------------------------------------------------|
2|---------------------------------------------------------|
3|-------------------------3-------------------------------|
4|-------4-------------4-5-----------4-------7-6---7-6-----|
5|---5-6---6-3---5-5-6---------5-5-6---6-3---5-4-8-5-4-8---|
6|-----------------------------------------------6-----6---|

   Pobreza, obediencia y castidad es siempre obligado cumplir
1|-----------------------------------------------------------|
2|-----------------------------------------------------------|
3|-----------------------------------------------------------|
4|--------------------------------------------------10-9-7---|
5|-0000000000000000----------------------------------8-7-5---|
6|------------------11111111111111-333333333333333-----------|
       --                  --            --                   pm

   a no ser que seas Papa o seas Rey, Obispo, o del Opus Dei
1|--------------------------------------------------------------------|
2|--------------------------------------------------------------------|
3|--------------------------------------------------------------------|
4|--------------------------------------------------------------------|
5|-00000000000000000--------------------------------------------------|
6|-------------------11111111111111111-333333333333333-555555555555---|
      --                   --                --             --         pm

   Haz lo que diga, no lo que haga yo
1|--------------------------------------------------------|
2|--------------------------------------------------------|
3|--------------------------------------------------------|
4|--------------------------------------------------------|
5|-7-8-7-5-3-5-7-8-7-5------5------5----5------5------5---|
6|-5-6-5-3-1-3-5-6-5-3-3333-3-3333-3-33-3-3333-3-3333-3---|
                       ----   ----   --   ----   ----      pm

1|-----------------------------------------|
2|-----------------------------------------|
3|-----------------------------------------|
4|-----------------------------------------|
5|----5------5------5----5------5------5---|
6|-33-3-3333-3-3333-3-33-3-3333-3-3333-3---|
   --   ----   ----   --   ----   ----      pm

   Tenemos dinero, poder, sexo en nombre de Dios
1|-------------------------|
2|-------------------------|
3|-------------------------|
4|-------------------------|
5|-7-8-7-5-3-5-7-8-7-5-3-5-|
6|-5-6-5-3-1-3-5-6-5-3-1-3-|

                                        Siempre en nombre de Dios!!!
1|---------------------------------------------------------|
2|---------------------------------------------------------|
3|-------------------------3-------------------------------|
4|-------4-------------4-5-----------4-------7-6-----------|
5|---5-6---6-3---5-5-6---------5-5-6---6-3---5-4-8-7-5-4---|
6|-----------------------------------------------6-5-3-2---|

1|------------------------------------------|
2|------------------------------------------|
3|------------------------3-----------------|
4|-------4------------4-5-----------4-------|
5|---5-6---6-3---5-5-6--------5-5-6---6-3---|
6|------------------------------------------|

  Vendemos bulas, compramos tus sueños, matamos en nombre de...
1|-----------------------------------------------------|
2|-----------------------------------------------------|
3|-----------------------------------------------------|
4|------------------------------------------------7----|
5|-8-7-5-3-5-7------8-7-5-3-5-7-------8-7-5-3-2---5----|
6|-6-5-3-1-3-5------6-5-3-1-3-5-------6-5-3-1-0--------|

  ¡Dios!
1|-------|
2|-------|
3|-------|
4|---5---|
5|---5---|
6|---3---|


No me convencio el envio anterior por eso mande mi propio tab
y esta super bueno...
Me disculpan pero el primer solo todavia no lo he sacado
si alguien ya lo tiene mandelo ps, asi me ahorran la chamba.
Espero que les guste ps y que esten satisfechos con lo que pude sacar

Diego M. G.
Lima - Comas - Perú
Suggest correction
Give kudos to tab author, rate the tab!
1 2 3 4 5
comments
print report bad tab
guest
You may want to rate the tab now too:
select rating
Wanna post a correction for this tab? Suggest correction