Oops, an error
Loading. Please wait.

Epílogo Tab

178 views 1 this week
no commentswrite comment
1 2 3 4 5
3 more votes to show rating
add to favorites
launch autoscroll
font size
0
reset
how to read this tab
guitar tuner
Autoscroll
slow
fast
+/-
esc
set tempo
stop
Bno esta es una transcripcion de el intro de la guitarra
espero y les guste.

(Frank)
e----------7-10-10-12-12-10-7-7---------|
B---7-8-10---------------------10-8-10--|
G-9------------------------------------9|
D---------------------------------------|
A---------------------------------------|
E---------------------------------------|

e----------7-10-10-12-12-14-15-14-12-10-7-10-12-|
B---7-8-10--------------------------------------|
G-9---------------------------------------------|
D-----------------------------------------------|
A-----------------------------------------------|
E-----------------------------------------------|

e-15-14-12-10-7-10-12|-15-14-12-12-12-10-10-10-12-7|
B--------------------|-----------------------------|
G--------------------|-----------------------------|
D--------------------|-----------------------------|
A--------------------|-----------------------------|
E--------------------|-----------------------------|

e-15-14-12-10-7-10-12---------------------|-------------------|
B---------------------12-12-12-10-12-13-12|-12-12-12-10-------|
G-----------------------------------------|------------12-11-9|
D-----------------------------------------|-------------------|
A-----------------------------------------|-------------------|
E-----------------------------------------|-------------------|


(Carlitos)
e---------------------12-12--------------------|
B-------------12-15-15------15-12-12-----------|
G----11-12-14------------------------14-12-14--|
D-14-----------------------------------------14|
A----------------------------------------------|
E----------------------------------------------|

e----------------------12-12-14-15-14-12----------12|
B-------------12-15-15-------------------15-12-15---|
G----11-12-14---------------------------------------|
D-14------------------------------------------------|
A---------------------------------------------------|
E---------------------------------------------------|

e-15-14-12----------12|-15-14-12-12-12---------------|
B----------15-12-15---|----------------15-15-15-17-12|
G---------------------|------------------------------|
D---------------------|------------------------------|
A---------------------|------------------------------|
E---------------------|------------------------------|

e-15-14-12----------12---------------------|-------------------|
B----------15-12-15----12-12-12-10-12-13-12|-12-12-12-10-------|
G------------------------------------------|------------12-11--|
D------------------------------------------|-----------------14|
A------------------------------------------|-------------------|
E------------------------------------------|-------------------|


     Em     D     Em
Cada arruga de mi piel,
      C        D     Em
es el mapa de lo que vivi.
     Em      D  Em
Cada cana es un adios,
      C          D           Em
un te quiero, un hola, un perdon.
     C-D     Bm       Em
Mi dia-rio esta en mi piel,
     C        D        G
alli puedes leer el guion
      C  D      Bm     Em
de la honrra de mi existir,
      C         D         B
de victorias, derrotas y amor,
     C        D      Em
despedida sin una cancion.


"la susecion de lo instrumental,
lleva la misma armonia que la letra,
al igual que el solo de flauta que queda al final de la misma
Los solos de la guitarra se puede acompañar todo el tiempo".

Viva mago de oz!!!!
:D
Suggest correction
Give kudos to tab author, rate the tab!
1 2 3 4 5
comments
print report bad tab
guest
Wanna post a correction for this tab? Suggest correction