Oops, an error
Loading. Please wait.

Estrella Fugaz Chords

85 views 1 this week
no commentswrite comment
1 2 3 4 5
3 more votes to show rating
add to favorites
launch autoscroll
font size
0
reset
transpose
0
reset
simplify chords
display chords
guitar tuner
×
Best way to learn
"Estrella Fugaz"
Autoscroll
slow
fast
+/-
esc
set tempo
stop
Intro
3)|--------------------------------
4)|--12-14-15-14-12-------12-14-12-
5)|-----------------15--15---------
6)|--------------------------------

3)|--------------------------------
4)|--12-14-15-14-12----14-12-15-12-
5)|-----------------15-------------
6)|--------------------------------

3)|--------------------------------
4)|--12-14-15-14-12-------12-14-12-
5)|-----------------15--15---------
6)|--------------------------------

3)|-----------------12-14-12--------
4)|--12-14-15-14-12----------14-12--
5)|---------------------------------
6)|---------------------------------


Dm            Am
Cuanto mas he de esperar,
Dm            Am
Cuanto mas he de buscar,
F             C
Para poder encontrar ,
F          C            Dm
La luz que se que hay en mi..
Dm             Am
He vivido en soledad,
Dm            Am
rodeado de multitud,
F              C
Nunca he conseguido amar,
F            C       Dm
Pues no me quiero ni yo.
OhhhhNooo

    Dm
1)|-1--1----0--0----|
2)|--3--3----1--1---|
3)|---2--2----0--0--|(x3)
4)|-----------------|
    Dm
1)|-1-----0---1-0---|
2)|--3---1--3-----3-|
3)|---2-0-----------|
4)|-----------------|


(Coro)
Dm                  Am
Cuando veas una estrella fugaz
C                  Dm
guárdala en tu corazón ,
Dm                    Am
es el alma de aquel que consiguió,
C                   Dm
dar a los suyos su amor ,
Dm                     Am
cuando oigas a un niño preguntar
C                       Dm
porque el sol viene y se va ,
Dm                     Am
dile porque en esta vida no hay
C                Dm
luz sin la oscuridad.

(A1 A2 )x2

(A1)
2)|---------------------------------------------------
3)|-------10-10-10-12-10------------------------------
4)|-12-14----------------14-12-10---10-10-10-12-14-12-
5)|---------------------------------------------------

(A2)
2)|-----------------------------------------------------
3)|-------10-10-10-12-10----12-14--14-12-10-12-10-------
4)|-12-14----------------14-----------------------14-12-
5)|-----------------------------------------------------


Dm                Am
Si eres capaz de devolver ,
Dm                Am
con una sonrisa una traición ,
F                    C
si eres capaz dar tu mano a quien ,
F           C     Dm
con la suya te señalo.
Dm                   Am
no eches raíces en un sitio muévete,
Dm                         Am
pues no eres un árbol para eso tienes dos pies,
F                             C
el hombre mas sabio es el que sabe que su hogar,
F         C          Dm
es tan grande como pueda imaginar.


(Coro)
Dm                  Am
Cuando veas una estrella fugaz
C                  Dm
guárdala en tu corazón ,
Dm                    Am
es el alma de aquel que consiguió,
C                   Dm
dar a los suyos su amor ,
Dm                     Am
cuando oigas a un niño preguntar
C                       Dm
porque el sol viene y se va ,
Dm                     Am
dile porque en esta vida no hay
C                Dm
luz sin la oscuridad.

(A1 A2 )x2
(A3 A4)x2

(A3)
2)|-----------------------------------------------------
3)|-----------------------------------------------------
4)|-15-12-12-12---15-12-12-12--14-12-10-12-12/14--------
5)|-----------------------------------------------------

(A4)
2)|---------------------------------------
3)|---------------------------------------
4)|-12-8-8-8--12-8-8-8--10-8-7-8-8/10-----
5)|---------------------------------------


F                          C                  Dm
El mejor día es en que el alma tiene hambre y sed,
F                       C                 Dm
no olvides lo aprendido no dejes de comprender,
F                  C            Dm
rodéate de buenos y tu lo parecerás ,
F                            C        Dm
rodéate de sabios y algo en ti se quedara.


F                          C                  Dm
El mejor día es en que el alma tiene hambre y sed,
F                       C                 Dm
no olvides lo aprendido no dejes de comprender,
F                  C            Dm
rodéate de buenos y tu lo parecerás.


(Coro)(x2)
Dm                  Am
Cuando veas una estrella fugaz
C                  Dm
guárdala en tu corazón ,
Dm                    Am
es el alma de aquel que consiguió,
C                   Dm
dar a los suyos su amor ,
Dm                     Am
cuando oigas a un niño preguntar
C                       Dm
porque el sol viene y se va ,
Dm                     Am
dile porque en esta vida no hay
C                Dm
luz sin la oscuridad.

F      C
Yeaaah,
F         C       Dm
Noooooh muelles y mar!
F             C     Dm
luz sin obscuridad!
Suggest correction
Give kudos to tab author, rate the tab!
1 2 3 4 5
comments
print report bad tab
guest
You may want to rate the tab now too:
select rating
Wanna post a correction for this tab? Suggest correction