Oops, an error
Loading. Please wait.

Für Immer Tab

version 1
version 1

Whole song

Interactive

109 views 1 this week
no commentswrite comment
1 2 3 4 5
3 more votes to show rating
add to favorites
×
Save as Personal and add changes to this tab that will be seen only by you. Learn more ›
×
You can save this tab as Personal to edit and correct it or add notes. All changes will be seen only by you. Learn more »
save as personal
new!
launch autoscroll
font size
0
reset
how to read this tab
guitar tuner
Autoscroll
slow
fast
+/-
esc
set tempo
stop
<<<< Eco >>>> Los Mejores Tabs que haran eco en tu voz

////ASI COMO ME TOMO LA MOLESTIA DE ESCRIBIR ESTA CANCION ////
////    TOMENSE LA MOLESTIA DE CALIFICARLA .GRACIAS      ////


//IMPORTANTE//IMPORTANTE//IMPORTANTE//IMPORTANTE//IMPORTANTE//
Aqui los acordes que les voy a poner por ejemplo un Rem no va a ser asi
    [ch]Dm -----------------------> REm[/ch]
E//--1-- //                  E//--5--//
B//--3--// va A ser en       B//--6--// Es decir
G//--2--// "power chords"    G//--7--// con cejillas
D//-----//  es decir         D//--7--// [ch]B[/ch] lo tocan
A//-----//                   A//--5--// con el acorde normal
E//-----//                   E//-----// se va A escuchar mal.

---AHORA SI COMENCEMOS CON EL TAB---------------------------------

Intro "La Parte del Piano"

D//----------------x2-------------------//
A//--5(555)5-7-8-7-------3(333)5-7-8-7--//
E//-------------------------------------//

En el (555) y (333) se tocan mas de 3 veces pero son muchas
como para escribirlas,toquenlas cuanto les guste.


    [ch]Dm                  [ch]Cm[/ch]   REm[/ch]       Arreglo de Piano
e//--5--------------------3-----5----//------------------//
B//--6--------------------4-----6----//----3-3-5-6-5-----//
G//--7--------------------5-----7----//------------------//
D//--7--------------------5-----7----//------------------//
A//--5--------------------3-----5----//------------------//
E//----------------------------------//------------------//
     Der Damon liebe ist  für immer, [x2]

    [ch]Cm                 [ch]A#m  DOm       LA#m[/ch]      DOm[/ch]
e//--3--------------------1-----3----//--1---------3----//
B//--4--------------------2-----4----//--2---------4----//
G//--5--------------------3-----5----//--3---------5----//
D//--5--------------------3-----5----//--3---------5----//
A//--3--------------------1-----4----//--1---------4----//
E//----------------------------------//-----------------//
    Der damon liebe ist für immer,       Für      immer.

(Esto se toca TODO x2 y en la segunda ves que termina con
 "Für immer DIR!!!" se toca igual)


Verso
[ch]Dm[/ch]
soy la sangre de los caídos
                               Esto realmente es con acordes
soy la orden negra             donde el 3=Dom y el 5=Rem
        Dom                    pero como muchos aun no podemos
soy el terror                  tocarlo asi pueden mientras tocarlo asi
                          D//---------------------------3----//
[ch]E cara es LA[/ch] de un dios  A//--3-555--3-555--3-555--3-5---5--//
                          E//--------------------------------//


 [ch]Dm[/ch]
Soy la raza, soy los sacrificios
                       [ch]Cm[/ch]
soy pureza, runas en un altar
                          D//---------------------------3----//
[ch]E honor es LA[/ch] lealtad    A//--3-555--3-555--3-555--3-5---5--//
                          E//--------------------------------//

[ch]Gm[/ch]                          [ch]Fm[/ch]
Mi sagrado destino,mi orden moral
          [ch]Cm                 SOLm[/ch]
extirpar la impureza de la humanidad
        [ch]Am      LA#m[/ch]                 [ch]Cm[/ch]
mi lucha es mi religion y el miedo mi voz


////(Se repite lo de "Der damon...")////

 [ch]Dm[/ch]
Soy el hombre que no tiene sombra
                                [ch]Cm[/ch]
Soy la muerte anunciada de toda paz
                       D//---------------------------3----//
[ch]A solución final      A[/ch]//--3-555--3-555--3-555--3-5---5--//
                       E//--------------------------------//
[ch]D[/ch]
Voy buscando el orden divino
                         [ch]Cm[/ch]
Magia negra, luz casi omisión
                        D//---------------------------3----//
La lanza del destino    A//--3-555--3-555--3-555--3-5---5--//
                        E//--------------------------------//

 [ch]Gm[/ch]                        [ch]Fm[/ch]
El Mesías de un nuevo orden mundial
               [ch]Cm                 SOLm[/ch]
El guerrero del reino, ¿la magia del mal?
           [ch]A         LA#m[/ch]           [ch]Cm[/ch]
Pureza de raza por convicción o por diversión.

////(Se repite lo de "Der damon...")////

[ch]Gm[/ch]                        [ch]Fm[/ch]         [ch]Cm[/ch]
Surcos de dolor marcan la piel de la razón
[ch]Gm          [ch]Am[/ch]         LA#m[/ch]         [ch]Cm[/ch]
surcos de terror que arañan el corazón.

(Discurso de Hitler)

////(Se repite lo de "Der damon...")////

y Terminamos ////CALIFIQUENLA//////
Suggest correction
Give kudos to tab author, rate the tab!
1 2 3 4 5
comments
print report bad tab
guest
Wanna post a correction for this tab? Suggest correction