Oops, an error
Loading. Please wait.

Génesis Tab

14 views 1 this week
no commentswrite comment
1 2 3 4 5
3 more votes to show rating
add to favorites
launch autoscroll
font size
0
reset
how to read this tab
guitar tuner
×
Best way to learn
"Génesis"
Autoscroll
slow
fast
+/-
esc
set tempo
stop
Este es Genesis del Mago y personalmente pienso que
esta un 95% correcta.

Primero empiezan los bajos:

Esto va en toda la canción y se va repitiendo
e|------------------------------------------------------------------------|
b|------------------------------------------------------------------------|
g|------------------------------------------------------------------------|
d|------------------------------------------------------------------------|
a|----9-10-9----9-10-9---9-10-9----9-10-----7-9-7---7-9-7----4-5-4----7-9-|
e|-7---------7---------7--------7---------5-------5--------2--------5-----|
                             Aqui empieza a decir" Y EL VERBO
SE HIZO CARNE Y HABITO ENTRE NOSOTROS Y NO BASTANDO CON SU
PRIMERA VENIDA REGRESO"

Y empieza despues de la frase el piano:
e|------14-15-14----14-15-14----14-15-14----14-15-14--
b|---12----------12----------12----------12-----------
g|----------------------------------------------------
d|----------------------------------------------------
a|----------------------------------------------------
e|----------------------------------------------------

----12-14-12----12-14-12----9-10-9-------------|
-10----------10-----------7---------9-10-11-12-|NOTA: el 12 es el comienzo
-----------------------------------------------|del proximo circulo
-----------------------------------------------|
-----------------------------------------------|
-----------------------------------------------|

Esto se sigue repitiendo al igual que el bajo, si hubieran los trastes
necesarios para hacerlo otra octava mas arriba quedaria remejor

En el organo que se oye de fondo podemos ocupar bm-A-f#m-A y tambien
se puede usar de base apartir de aqui usandolo correctamente

Ahora sigue la parte del organo con el violin:

    Bm                                  A
e|-7--7-8-7-10-8-7----7-7-8-7-12-10-8-7-------7----10-8-7---
b|-----------------10-------------------10-10---10--------10
g|----------------------------------------------------------
d|----------------------------------------------------------
a|----------------------------------------------------------
e|----------------------------------------------------------

F#m       A       Bm
-------------------7....|
-7-8-10-11-9-10-11------|
------------------------|
------------------------| 2x
------------------------|
------------------------|

En esta ultima parte tengo un poco de dudas pero da.

Saludos a todos los amantes de la buena musica como las del mago.
Ah Gerardo espero ver tu partitura muy pronto porque ya es tiempo
tambien vos benjamin.
Suggest correction
Give kudos to tab author, rate the tab!
1 2 3 4 5
comments
print report bad tab
guest
You may want to rate the tab now too:
select rating
Wanna post a correction for this tab? Suggest correction