Oops, an error
Loading. Please wait.

Génesis Bass Tab

22 views 1 this week
no commentswrite comment
1 2 3 4 5
3 more votes to show rating
add to favorites
launch autoscroll
font size
0
reset
guitar tuner
×
Best way to learn
"Génesis"
Autoscroll
slow
fast
+/-
esc
set tempo
stop
g-------11-13-11---11-13-11---11-13-11---11-13-11-|
d--9-------------9----------9----------9----------|
a-------------------------------------------------|
e-------------------------------------------------|


g----9-11-9---9-11--------11---------14-|
d--7--------7----------11---------14----|
a------------------7-9-------9-12-------|
e---------------------------------------|


Y asi es todo el rato
disfruten

cualquier cosa mi correo es brodeur_neto@
Suggest correction
Give kudos to tab author, rate the tab!
1 2 3 4 5
comments
print report bad tab
guest
You may want to rate the tab now too:
select rating
Wanna post a correction for this tab? Suggest correction