Oops, an error
Loading. Please wait.

Incubus Y Sucubus Tab

40 views 1 this week
no commentswrite comment
1 2 3 4 5
3 more votes to show rating
add to favorites
launch autoscroll
font size
0
reset
how to read this tab
guitar tuner
Autoscroll
slow
fast
+/-
esc
set tempo
stop
Help us to improve Ultimate-Guitar.com Take our survey!
×
Aqui les traigo un corto de lo que es esta maravillosa pero
corta rola de estos locos destrampados.


E||----------------------|---------------------|---------------------|
B||----------------------|-----------10--------|----------10----8----|
G||--7----9----10--------|--7------------------|---------------------|
D||----------------------|---------------------|---------------------|
A||----------------------|---------------------|---------------------|
E||----------------------|---------------------|---------------------|


----------------------|----------------------|--------------------|
----------------------|----------------------|-----------9--------|
--9----10----7--------|--7----9----10--------|--7-----------------|
----------------------|----------------------|--------------------|
----------------------|----------------------|--------------------|
----------------------|----------------------|--------------------|


--------------------|------------------|----------------------|
----------10--------|------------------|----------------------|
--------------------|------------------|--7----9----10--------|
--------------------|------------------|----------------------|
--------------------|------------------|----------------------|
--------------------|------------------|----------------------|


---------------------|---------------------|--------8----10--------|
-----------10--------|----------10----8----|--10-------------------|
--7------------------|---------------------|-----------------------|
---------------------|---------------------|-----------------------|
---------------------|---------------------|-----------------------|
---------------------|---------------------|-----------------------|


--10----12----13--------|--10------------------|--10------------------|
------------------------|------------11--------|------------10--------|
------------------------|----------------------|----------------------|
------------------------|----------------------|----------------------|
------------------------|----------------------|----------------------|
------------------------|----------------------|----------------------|


--------------------|---------------------|------------------|
--8-----------------|---------------------|------------------|
-----------9--------|--10--------7--------|------------------|
--------------------|---------------------|------------------|
--------------------|---------------------|------------------|
--------------------|---------------------|------------------|
Suggest correction
Give kudos to tab author, rate the tab!
1 2 3 4 5
comments
print report bad tab
guest
You may want to rate the tab now too:
select rating
Wanna post a correction for this tab? Suggest correction